Oops, an error
Loading. Please wait.

3 Fast tab

109 views 3 this week
no commentswrite comment
1 2 3 4 5
x 3
add to favorites
×
Save as Personal and add changes to this tab that will be seen only by you. Learn more ›
×
You can save this tab as Personal to edit and correct it or add notes. All changes will be seen only by you. Learn more »
launch autoscroll
font size
0
reset
how to read this tab
guitar tuner
edit
Autoscroll
slow
fast
+/-
esc
set tempo
stop
About this tab version
I try to include every part of the song's guitar arrangement. Was this info helpful? Yes No
[Verse]
e|-x---x/x-x---5---x---x---6/x-x--0---0--------------------------------------|
B|-6---6/9-9---5---7---6---6/9-9--0---0--------------------------------------|
G|-6---6/9-9---6---7---6---6/9-9--8---6--------------------------------------|
D|-6---6/9-9---7---7---6---6/9-9--9---7--------------------------------------|
A|-4---4/7-7---7---9---4---4/7-7--9---7--------------------------------------|
E|-------------5------------------7---5--------------------------------------|

[Instrumental/Intelude]
(its not perfect but it sounds good)
e|-------------------------|---------------------|
B|-------------------------|---------------------|
G|-11/13---14---14/16---18-|--16---14/9----------|
D|-11/13---14---14/16---18-|--16---14/9----------|
A|--9/11---12---12/14---16-|--14---12/7----------|
E|-------------------------|---------------------|

[Outro/solo]
(99% sure on this one)
e|-----------------------------|------------------------|
B|-----------------------------|----10b---10b-----------|
G|-11h13-13b-13bx3---13h16pbx2-|-13----13---------------|
D|-----------------------------|------------------------|
A|-----------------------------|------------------------|
E|-----------------------------|------------------------|

e|--------------------|----------------|-----------=----|--------------|
B|--------------------|----------------|----------=-----|--------------|
G|--13--13--13--13--13|--13--13--13--13|--13--13--13--13|--13--13--13--|
D|----11--11--11--11--|14--14--14--14--|----------------|--------------|
A|--------------------|----------------|14--14--14--14--|12--12--12--12|
E|--------------------|----------------|----------------|--------------|

 PM|--------------
e|-6/x-x--0---0---------|-----------------------------------------------------------------|
B|-6/9-9--0---0---------|-----------------------------------------------------------------|
G|-6/9-9--8---6---------|-----------------------------------------------------------------|
D|-6/9-9--9---7---------|-----------------------------------------------------------------|
A|-4/7-7--9---7---------|--11h12p11---11h12p11---11h12p11h12p11h12---11h12p11---11h12p11--|
E|--------7---5---------|-----------12---------12------------------12---------12----------|

e|---------------|
B|-------0----0--|
G|-----13---13---| (repeat as needed till) 
D|---16---16-----|
A|---------------|
E|---------------|
 
e|---------------------|-----------14----16--|
B|-------14----16----17|-----16--------------|
G|-----13----13----13--|---13----13----13----|  
D|---16----16----16----|-16----16----16------|
A|---------------------|---------------------|
E|---------------------|---------------------|

(you can faintly hear that B string lick but its there, I personaly reccomend holding the 16(D) and 13(G)with 
your ring on D and your index on g while your middle gets the 14 on the B string and you pinky gets the 17
and 16 for the lick, same goes for the stuff on the high e)



************************************

| x   Dead note
| /   Slide up
| b   Bend
| h   Hammer-on
| p   Pull-off
| PM  Palm mute
| /x  
| =   
| bx  
| pbx 
| x/x 

************************************

            
            
Suggest correction
Creating personal tab
Creating personal tab
You can edit any tab online and save it as your Personal.

You can edit, replace or remove any tab part or add personal notes – all changes will be seen only by you.

Personal tabs can be accessed anytime from any device, even offline.
Learn more »
Give kudos to tab author, rate the tab!
1 2 3 4 5
comments
print report bad tab
guest
You may want to rate the tab now too:
select rating
Wanna post a correction for this tab? Suggest correction