Oops, an error
Loading. Please wait.

Eve White Eve Black bass

741 views 3 this week
no commentswrite comment
1 2 3 4 5
1 last vote to show rating
add to favorites
×
Save as Personal and add changes to this tab that will be seen only by you. Learn more ›
×
You can save this tab as Personal to edit and correct it or add notes. All changes will be seen only by you. Learn more »
launch autoscroll
font size
0
reset
guitar tuner
edit
Autoscroll
slow
fast
+/-
esc
set tempo
stop
Author
Difficulty
Band: Siouxsie And The Banshees
Song: Eve White/Eve Black (From the live album Nocturne)
Tuning: Standard
Tabbed by: amaranth_todd


*I wasn't exactly sure of the notes in the tempo change, but im pretty sure they're right.


       E  E  E  E  E  E  E  E    E  E  E  E  E  E  E  E
||--15----17----15----17----|-15----17----15----17----|
||o----16----16----16----16-|----16----16----16----16-|
||o-------------------------|-------------------------|
||--------------------------|-------------------------|


   E  E  E  E  E  E  E  E    E  E  E  E  E  E  E  E
|-12----14----12----14----|-12----14----12----14----|
|----13----13----13----13-|----13----13----13----13-|
|-------------------------|-------------------------|
|-------------------------|-------------------------|


   E  E  E  E  E  E  E  E    E  E  E  E  E  E  E  E
|-15----17----15----17----|-15----17----15----17----|
|----16----16----16----16-|----16----16----16----16-|
|-------------------------|-------------------------|
|-------------------------|-------------------------|


   E  E  E  E  E  E  E  E    E  E  E  E  E  E  E  E
|-12----14----12----14----|-12----14----12----14----|
|----13----13----13----13-|----13----13----13----13-|
|-------------------------|-------------------------|
|-------------------------|-------------------------|


                    1.,2.               3.
  E E E E E E E E   E E E E E E E E  3x E E E E H
|-7---9---7---9---|-7---9---7---9----||-7---9---7----|
|---8---8---8---8-|---8---8---8---8-o||---8---8------|
|-----------------|-----------------o||--------------|
|-----------------|------------------||--------------|


(Tempo change)

     E  E  E  E  E  E  E  E    E  E  E  E  E  E  E  E
||--------------------------|-------------------------|
||o-10-10-10-10-10-10-10-10-|-11-11-11-11-11-11-11-11-|
||o-10-10-10-10-10-10-10-10-|-10-10-10-10-10-10-10-10-|
||--------------------------|-------------------------|


   E  E  E  E  E  E  E  E    E  E  E  E  E  E  E  E
|-------------------------|--------------------------|
|-10-10-10-10-10-10-10-10-|-11-11-11-11-11-11-11-11--|
|-10-10-10-10-10-10-10-10-|-10-10-10-10-10-10-10-10--|
|-------------------------|--------------------------|


  E E E E E E E E   E E E E E E E E   E E E E E E E E   E E E E E E E E  7x
|-----------------|-----------------|-----------------|------------------||
|-8-8-8-8-8-8-8-8-|-9-9-9-9-9-9-9-9-|-8-8-8-8-8-8-8-8-|-9-9-9-9-9-9-9-9-o||
|-8-8-8-8-8-8-8-8-|-8-8-8-8-8-8-8-8-|-8-8-8-8-8-8-8-8-|-8-8-8-8-8-8-8-8-o||
|-----------------|-----------------|-----------------|------------------||


   E  E  E  E  E  E  E  E    E  E  E  E  E  E  E  E
|-------------------------|-------------------------|
|-10-10-10-10-10-10-10-10-|-11-11-11-11-11-11-11-11-|
|-10-10-10-10-10-10-10-10-|-10-10-10-10-10-10-10-10-|
|-------------------------|-------------------------|


   E  E  E  E  E  E  E  E    W
|-------------------------|-------*|
|-10-10-10-10-10-10-10-10-|-10----*|
|-10-10-10-10-10-10-10-10-|-10----*|
|-------------------------|-------*|


Please rate and comment!


--------------------------------------------------------------------------------


Duration Legend
---------------
W - whole; H - half; Q - quarter; E - 8th; S - 16th; T - 32nd; X - 64th; a - acciaccatura
+ - note tied to previous; . - note dotted; .. - note double dotted
Uncapitalized letters represent notes that are staccato (1/2 duration)
Irregular groupings are notated above the duration line
Duration letters will always appear directly above the note/fret number it represents the
duration for.  Duration letters with no fret number below them represent rests.  Multi-
bar rests are notated in the form Wxn, where n is the number of bars to rest for.  Low
melody durations appear below the staff

            
            
Suggest correction
Creating personal tab
Creating personal tab
You can edit any tab online and save it as your Personal.

You can edit, replace or remove any tab part or add personal notes – all changes will be seen only by you.

Personal tabs can be accessed anytime from any device, even offline.
Learn more »
Give kudos to tab author, rate the tab!
1 2 3 4 5
comments
print report bad tab
guest
You may want to rate the tab now too:
select rating
Wanna post a correction for this tab? Suggest correction