Oops, an error
Loading. Please wait.

Israel tab

version 1
version 1

Whole song

Interactive

9,534 views 12 this week
1 commentread comment
1 2 3 4 5
x 5
add to favorites
×
Save as Personal and add changes to this tab that will be seen only by you. Learn more ›
×
You can save this tab as Personal to edit and correct it or add notes. All changes will be seen only by you. Learn more »
launch autoscroll
font size
0
reset
how to read this tab
guitar tuner
backing track
0:00
0:00
edit
Autoscroll
slow
fast
+/-
esc
set tempo
stop
Author
-------------------------------------------------------------------------------
                             Israel - Siouxsie and the Banshees
-------------------------------------------------------------------------------
Tabbed by: sharkstabber
Email:tomsmizrahi@yahoo.com

Tuning:eadgbe
  Intro/Outro:
e|---------------------------------------------------------------------------|
B|12----------12----------12--------------12---------------------------------|
G|---------------------------------------------------------------------------|
D|---9-11--------9-11--------9-11----11-9-------11----11-9-------------------|
A|--------12----------12----------12---------12----12------------------------|
E|---------------------------------------------------------------------------|

e|---------------------------------------------------------------------------|
B|12----------12----------12--------------12---------------12---12-----------|
G|---------------------------------------------------------------------------|
D|---9-11--------9-11--------9-11----11-9-------11----11-9----9----9---------|
A|--------12----------12----------12---------12----12------------------------|
E|---------------------------------------------------------------------------|

  Verse:    
e|12----------9------------------------14------------------------------------|
B|---12---------9------------12-----15---------------------------------------|
G|------12--------9-------12-----14------------------------------------------|
D|---------14-------9--12----------------------------------------------------|
A|---------------------------------------------------------------------------|
E|---------------------------------------------------------------------------|
  Chorus:
e|---------------------------------------------------------------------------|
B|---------------------------------------------------------------------------|
G|---------------------------------------------------------------------------|
D|9-9-9-9-9-9-9-9--10-10-10-10-10-10-10-10-----------------------------------|
A|7-7-7-7-7-7-7-7--10-10-10-10-10-10-10-10-----------------------------------|
E|7-7-7-7-7-7-7-7--8--8--8--8--8--8--8--8------------------------------------|

e|---------------------------------------------------------------------------|
B|---------------------------------------------------------------------------|
G|---------------------------------------------------------------------------|
D|9-9-9-9-9-9-9-9--10-10-10-10-10-10-10-10-----------------------------------|
A|7-7-7-7-7-7-7-7--10-10-10-10-10-10-10-10-----------------------------------|
E|7-7-7-7-7-7-7-7--8--8--8--8--8--8--8--8------------------------------------|

e|---------------------------------------------------------------------------|
B|---------------------------------------------------------------------------|
G|---------------------------------------------------------------------------|
D|9-9-9-9-9-9-9-9--10-10-10-10-10-10-10-10-----------------------------------|
A|7-7-7-7-7-7-7-7--10-10-10-10-10-10-10-10-----------------------------------|
E|7-7-7-7-7-7-7-7--8--8--8--8--8--8--8--8------------------------------------|

e|---------------------------------------------------------------------------|
B|---------------------------------------------------------------------------|
G|---------------------------------------------------------------------------|
D|9--9--9--9--9--9--9--9---7-7-7-7-7-7-7-7-----------------------------------|
A|10-10-10-10-10-10-10-10--5-5-5-5-5-5-5-5-----------------------------------|
E|10-10-10-10-10-10-10-10--5-5-5-5-5-5-5-5-----------------------------------|


===============================================================================

            
            
Suggest correction
Creating personal tab
Creating personal tab
You can edit any tab online and save it as your Personal.

You can edit, replace or remove any tab part or add personal notes – all changes will be seen only by you.

Personal tabs can be accessed anytime from any device, even offline.
Learn more »
comments
print report bad tab
1 comment total.
0 reply
mhoek 38 May 23, 2016 10:01 AM

Intro and verse are totally wrong. Intro is at the 7 and 6 fret.

e|-7-----7-----7-----7------|
B|--0-----0-----0---0-0---0-|
G|---6-----6-----6-6---6-6--|
D|----7-----7-----7-----7---|
A|--------------------------|
E|--------------------------|

e|-7----7----7-----7-----7-7--|
B|--0----0----0---0-0---0-0-0-|
G|---6----6----6-6---6-6------|
D|----7----7----7-----7-------|
A|----------------------------|
E|----------------------------|

Verse is wrong also,
e|-12--------9-------------------------|
B|---12-------9----------(12)-----(7)--|
G|-----12------9------(12)------(7)----|
D|-------12-----9--(12)-------(7)------|
A|-------------------------------------|
E|-------------------------------------|


e|-12--------9---------------------------------|
B|---12-------9----------(12)-----(7)----------|
G|-----12------9------(12)------(7)----7-7-7/9-|
D|-------12-----9--(12)-------(7)------7-7-7/9-|
A|-------------------------------------5-5-5/7-|
E|---------------------------------------------|

guest
You may want to rate the tab now too:
select rating
Wanna post a correction for this tab? Suggest correction