Oops, an error
Loading. Please wait.

Lands End tab

323 views 3 this week
2 commentsread comments
1 2 3 4 5
x 3
add to favorites
×
Save as Personal and add changes to this tab that will be seen only by you. Learn more ›
×
You can save this tab as Personal to edit and correct it or add notes. All changes will be seen only by you. Learn more »
launch autoscroll
font size
0
reset
how to read this tab
guitar tuner
edit
Autoscroll
slow
fast
+/-
esc
set tempo
stop
Author
-------------------------------------------------------------------------------
                             LAND'S END - Siouxsie and the Banshees
-------------------------------------------------------------------------------
Tabbed by: emilym80
E-mail: emilym80@hotmail.com

Tuning: standard

I've broken this tab into a few sections:


Verse/main riff: This looks a bit all over the place, so it probably isn't super
easy to follow, but it's how the riff goes.
e|---------------------------8-------------------------------------0------------|
B|----------------------------12-----------------------------------3------------|
G|------------------------------0----------------------------------0------------|
D|-----12--12--12----------9---------------12--12--12--------9-----4------------|
A|----9---9--9---------0-12---------------9---9--9-------0-12------5------------|
E|-0---------------------------------0------------------------------------------|


Chorus: here are the chords. The way he arpeggiates changes slightly each time:
e|-----0---0-----------------------------------------------------------------|
B|-----5---5---------7---7--------9-----9------------------------------------|
G|---2---2---2-----5---5---5----7---7----------------------------------------|
D|-4-------------7------------9-------9--------------------------------------|
A|---------------------------------------------------------------------------|
E|---------------------------------------------------------------------------|

Bridge section 1:
e|----------------------------------------------------------------------------------|
B|----------------------------------------------------------------------------------|
G|-9--9--------9--9--------9--9--------9--9---------4-4-----4-4-----4-4-----4-4-----|
D|-10-10-------10-10-------10-10-------10-10--------5-5-----5-5-----5-5-----5-5-----|
A|-------12-12-------12-12-------12-12-------12-12------7-7-----7-7-----7-7----7-7--|
E|----------------------------------------------------------------------------------|

Bridge section 2a:
e|-0------0----0-------------0------0-----0----------------------------------|
B|-0------0----0-------------0------0-----0----------------------------------|
G|-9------5----0------0------9------5-----0------0---------------------------|
D|-10-----7----2--------2----10-----7-----2--------2-------------------------|
A|-12-----7----2----2--------12-----7-----2----2-----------------------------|
E|-------------0--0-----------------------0--0-------------------------------|

Bridge section 2b:
The very last note of this section (open E) leads into a repetition of the figure.
e|---------------------------------------------------------------------------|
B|---------------------------------------------------------------------------|
G|---------0---------------0-----------------0----------------0--------------|
D|-----3-----3---3-----3-----3-------1-0-1-3---3-1----1-0-1-3---3------------|
A|---3---3-----3-----3---3---------------------------------------------------|
E|-1---------------1-----------1-3-4----------------4-------------0----------|

Bridge section 3: variations on:
e|---------------------------------------------------------------------------|
B|---------------------------------------------------------------------------|
G|-7-7--5-5--7-7--5-5--10-9--10-9--------------------------------------------|
D|-7-7--7-7--7-7--7-7--10-10-10-10-------------------------------------------|
A|---------------------------------------------------------------------------|
E|---------------------------------------------------------------------------|

The rest of the song just repeats these sections.


************************************

| /   slide up
| \   slide down
| h   hammer-on
| p   pull-off
| ~   vibrato
| +   harmonic
| x   Mute note
| b   Bend
| pb  Pre-bend
| br  Bend release
| pbr Pre-bend release
| brb Bend release bend

************************************

            
            
Suggest correction
Creating personal tab
Creating personal tab
You can edit any tab online and save it as your Personal.

You can edit, replace or remove any tab part or add personal notes – all changes will be seen only by you.

Personal tabs can be accessed anytime from any device, even offline.
Learn more »
Give kudos to tab author, rate the tab!
1 2 3 4 5
comments
print report bad tab
2 comments total.
-1 reply
jshinomiya 216 Nov 23, 2015 05:17 AM, edited at 10:17 am

Verse/main riff is a little off. Heres the way to do it. Watch guedzilla cover this on youtube.
e|--------------------------------------8------|---------------------|
B|---------------------------------------12----|---3-----------------|
G|----------------------------------------11---|----0----------------|
D|-------------12-------12--------9------------|-----4---------------|
A|----------9--------9---------12--------------|------5--------------|
E|-0-----0--------0---------0------------------|---------------------|

0 reply
Emilym80 398 Nov 29, 2015 07:08 PM

Those are the same notes. If you listen to the recording, the open G in that cluster chord is very easy to hear- it's not an F Sharp

guest
You may want to rate the tab now too:
select rating
Wanna post a correction for this tab? Suggest correction