Oops, an error
Loading. Please wait.

Metal Postcard Mittageisen tab

2,658 views 3 this week
2 commentsread comments
1 2 3 4 5
x 3
add to favorites
×
Save as Personal and add changes to this tab that will be seen only by you. Learn more ›
×
You can save this tab as Personal to edit and correct it or add notes. All changes will be seen only by you. Learn more »
launch autoscroll
font size
0
reset
how to read this tab
guitar tuner
edit
Autoscroll
slow
fast
+/-
esc
set tempo
stop
Author
Difficulty
-------------------------------------------------------------------------------
                             Metal Postcard - Siouxsie and the Banshees
-------------------------------------------------------------------------------
Tabbed by: Chordmonkey

Tuning: standard


Hey, this is Metal Postcard (Mittageisen) from Siouxsie Sioux's Scream album, from 1978. 
easy to play, but it sounds so great

Verse/riff
   ....    ....   ....    ....
e|------------------------------------------|
B|------------------------------------------|
G|------------------------------------------|
D|------10------9------10------9------------|
A|------10------9------10------9------------|
E|--8-8-----8-8----8-8-----8-8--------------|

 Chorus
e|------------------------------------------|
B|------------------------------------------|
G|-12-121212-12/8-888-8---------------------|
D|-12-121212-12/8-888-8---------------------|
A|-10-101010-10/6-666-6---------------------|
E|------------------------------------------|

 End on
e|------------|
B|------------|
G|------------|
D|---10-10----|
A|---10-10----|
E|---8--8-----|

            
            
Suggest correction
Creating personal tab
Creating personal tab
You can edit any tab online and save it as your Personal.

You can edit, replace or remove any tab part or add personal notes – all changes will be seen only by you.

Personal tabs can be accessed anytime from any device, even offline.
Learn more »
Give kudos to tab author, rate the tab!
1 2 3 4 5
comments
print report bad tab
2 comments total.
0 reply
Arthur_Jayz-G! 289 Aug 15, 2008 11:57 AM

I think its actually played like this:

B|------8-----7---
G|------8-----7---

E|---88---88------

And you forgot the bends at the beginning.

0 reply
fetusrobot 406 Feb 15, 2014 07:33 AM

i like to play it like this

G x x 5 x x 4
D x x 5 x x 5
A x x 3 x x 3
E

and the chorus i just play it like a major G chord (with four fingers) and an octave power chord i think D#

guest
You may want to rate the tab now too:
select rating
Wanna post a correction for this tab? Suggest correction