Oops, an error
Loading. Please wait.

Hold On tab

115 views 1 this week
no commentswrite comment
1 2 3 4 5
3 more votes to show rating
add to favorites
×
Save as Personal and add changes to this tab that will be seen only by you. Learn more ›
×
You can save this tab as Personal to edit and correct it or add notes. All changes will be seen only by you. Learn more »
launch autoscroll
font size
0
reset
how to read this tab
guitar tuner
edit
Autoscroll
slow
fast
+/-
esc
set tempo
stop
Difficulty
Artist: Siren's Sister
Title: Hold On
Album: Echoes From The Ocean Floor
Tabs: stringping

The boys of Vendetta Red have done it again, a great record with great songs this is 
first single Hold On.

Intro
e|-----------------3-1--0--------------------------|
B|------3--5---------------------------------------|
G|-5----------5-----------5------------------------|
D|-------------------------------------------------|
A|-------------------------------------------------|
E|-------------------------------------------------|
Strum

Verse
e|-----8--------13-10---10-6-----------------------|
B|----8-------10-------6---------------------------|
G|---9------10--------7----------------------------|
D|-10-----12---------8-----------------------------|
A|-------------------------------------------------|
E|-------------------------------------------------|
Let Ring

Pre-Chorus
e|-0--3--1---3-0--3--1--1--------------------------|
B|-1--3--1---3-1--3--1--1--------------------------|
G|-2--0--2---0-2--0--2--1--------------------------|
D|-2--0--3---0-2--0--3--3--------------------------|
A|-0--2--3---2-0--2--3--3--------------------------|
E|----3--1---3----3--1--1--------------------------|
Strum                ^  ^Let Ring

Chorus
e|-------------------------------------------------|
B|-5----6--3---------------------------------------|
G|-5----7--3---------------------------------------|
D|-5----7--3---------------------------------------|
A|-3----5--1---------------------------------------|
E|-------------------------------------------------|
Strum

Solo
e|-------------------------------------------------|
B|-------------------------------------------------|
G|-7h9--7--5--10--9--7--5-7s9--7--5--9-10--9h10----|
D|---------------------------------------10----10--|
A|-------------------------------------------------|
E|-------------------------------------------------|


e|-------------------------------------------------|
B|-------------------------------------------------|
G|--9--9-7h9-9p7--7---9p7--7---9p7--7--9--10--9--7-|
D|---10-10------10-10----10-10----10-10-10--10-10--|
A|-------------------------------------------------|
E|-------------------------------------------------|


e|-------------------10--10--10--10-10s12-12t------|
B|------------------8--8---8---8-------------------|
G|-----------5h7-7s9----9---9---9------------------|
D|-10-7s5-5h7--------------------------------------|
A|-------------------------------------------------|
E|-------------------------------------------------|
t=Tremolo Picking


e|-s12t---10t---8t--13t-10-10s12-12t---10t---8-s-4-|
B|--------------8t--8t-----------------------------|
G|-------------------------------------------------|
D|-------------------------------------------------|
A|-------------------------------------------------|
E|-------------------------------------------------|

End
e|-3-----------------------------------------------|
B|-5-----------------------------------------------|
G|-5-----------------------------------------------|
D|-5-----------------------------------------------|
A|-3s-slide-back-to-nut----------------------------|
E|-------------------------------------------------|


Enjoy!

I'll be working on the rest of the album,
next will probably be Womb Dreams From The Ether.

www.sirenssister.com

            
            
Suggest correction
Creating personal tab
Creating personal tab
You can edit any tab online and save it as your Personal.

You can edit, replace or remove any tab part or add personal notes – all changes will be seen only by you.

Personal tabs can be accessed anytime from any device, even offline.
Learn more »
Give kudos to tab author, rate the tab!
1 2 3 4 5
comments
print report bad tab
guest
Wanna post a correction for this tab? Suggest correction