Oops, an error
Loading. Please wait.

Gone Not Around Any Longer intro tab

722 views 1 this week
1 commentread comment
1 2 3 4 5
2 more votes to show rating
add to favorites
×
Save as Personal and add changes to this tab that will be seen only by you. Learn more ›
×
You can save this tab as Personal to edit and correct it or add notes. All changes will be seen only by you. Learn more »
launch autoscroll
font size
0
reset
how to read this tab
guitar tuner
edit
Autoscroll
slow
fast
+/-
esc
set tempo
stop
Author
Difficulty
Listen to the song first for the rhythm

E|------------------8---6--8-----|
B|-----6--9---6--9------------6--|
G|--8----------------------------|
D|-------------------------------|
A|-------------------------------|
E|-------------------------------|



E|--8--6-----8--11--8--6--------|
B|--------9---------------9--9--|
G|------------------------------|
D|------------------------------|
A|------------------------------|
E|------------------------------|



E|-----6-----6--------------|
B|--9-----8-----8--6--------|
G|--------------------8--8--|
D|--------------------------|
A|--------------------------|
E|--------------------------|

            
            
Suggest correction
Creating personal tab
Creating personal tab
You can edit any tab online and save it as your Personal.

You can edit, replace or remove any tab part or add personal notes – all changes will be seen only by you.

Personal tabs can be accessed anytime from any device, even offline.
Learn more »
Give kudos to tab author, rate the tab!
1 2 3 4 5
comments
print report bad tab
1 comment total.
0 reply
kelbyluk1 65 Feb 07, 2015 10:29 PM

Lack of accuracy. This tab sounds nothing like the song, which is the reason for my rating that needs to have at least 20 words

guest
You may want to rate the tab now too:
select rating
Wanna post a correction for this tab? Suggest correction