Oops, an error
Loading. Please wait.

Hes The Greatest Dancer bass

23,036 views 57 this week
1 commentread comment
1 2 3 4 5
x 8
add to favorites
×
Save as Personal and add changes to this tab that will be seen only by you. Learn more ›
×
You can save this tab as Personal to edit and correct it or add notes. All changes will be seen only by you. Learn more »
launch autoscroll
font size
0
reset
guitar tuner
edit
Autoscroll
slow
fast
+/-
esc
set tempo
stop
Difficulty
intermediate
this is my very first tab so if it's not right I'm sorry


~:let it ring


Intro:1st
G:--------------------------------------------------|
D:------------------------3-5--5-0------------------|
A:-----5----3-3-3~-345~-5-----------3-3-3-345-------|
E:---3~---3----------------------------------023----| x6
 2nd
G:----------------------------------------|
D:-----------------------3-5--5-----------|
A:-----5---3-3-3~-345~--5--------5--------|
E:---3---3------------------------3-3-3~--|

Chorus
G:-------------------------------------------|
D:-------------------------------------------|
A:---3~--5~-------------3~--5~---------------|
E:------------2~--3~------------3-3-3---023--| x2

Verse

G:----------------------------------------------------|
D:------------------------3-5--5-0--------------------|
A:-----5----3-3-3~-345~--5-----------3-3-3-345--------|
E:---3~---3----------------------------------023------| x3
 2nd
G:----------------------------------------|
D:-----------------------3-5--5-----------|
A:-----5---3-3-3~-345~--5--------5--------|
E:---3---3------------------------3-3-3~--|


Chorus
G:-------------------------------------------|
D:-------------------------------------------|
A:---3~--5~-------------3~--5~---------------|
E:------------2~--3~------------3-3-3---023--| x2

Verse

G:----------]-------------------------------------------------|
D:----2345~-]-5-0-----------------3-5--5-0--------------------|
A:----------]-----3-3-3~-345~--5~-----------3-3-3-345---------|
E:----------]-----------------------------------------023-----| x3

G:-------------------------------------------|
D:-------------------------3-5--5------------|
A:-----5---3-3-3~-345~--5~--------5----------|
E:---3---3------------------------3-3-3~-----|

Chorus
G:-------------------------------------------|
D:-------------------------------------------|
A:---3~--5~-------------3~--5~---------------|
E:------------2~--3~------------3-3-3---023--|

that is the basics of the song

            
            
Suggest correction
Creating personal tab
Creating personal tab
You can edit any tab online and save it as your Personal.

You can edit, replace or remove any tab part or add personal notes – all changes will be seen only by you.

Personal tabs can be accessed anytime from any device, even offline.
Learn more »
comments
print report bad tab
1 comment total.
0 reply
Jayser100 10 Jun 10, 2013 03:41 AM

Thanks, this is really good

guest
Wanna post a correction for this tab? Suggest correction