Oops, an error
Loading. Please wait.

Dont Forget Your Roots tab

version 1
version 1

Whole song

by Six60
29,720 views 6 this week
5 commentsread comments
1 2 3 4 5
x 17
add to favorites
×
Save as Personal and add changes to this tab that will be seen only by you. Learn more ›
×
You can save this tab as Personal to edit and correct it or add notes. All changes will be seen only by you. Learn more »
launch autoscroll
font size
0
reset
how to read this tab
guitar tuner
edit
Autoscroll
slow
fast
+/-
esc
set tempo
stop
Author
Difficulty
Kia ora, this is 100% correct as this was given to me by Ji Fraser himself so I thought I'd 
share it with very one!

intro riff:

E----------------------------------------------------------------|
B----------------------------------------------------------------|
G----------------------------------------------------------------|      (repeat 4 times i think)
D----------------------------10----------------------------------|
A----8-8-8-8-8-8-8-8-8------------7-7-7-7-7-5-3-----------3-5-7--|
E-------------------------------8-------------------------5-5-5--|

Chords:


E-----8----------8----------3-------5------|
B----10----------8---------3-------5-------|
G----10----------9---------4-------5-------|
D----10---------10---------5-------7-------|
A----8----------10---------5-------7-------|
E----------------8----------3-------5------|
     (F)         (C)        (G)      (Am)
                   Higher
                   key C
These are the chords but the strumming rhythm you will have to figure out from listening 
coz it would be a nightmare to tab




My Intro solo goes like this:


E-------8----10--10----8---8--------------------------------------------|
B-------8----10--10----8---8--6----8--8---6-----------------------------|
G----------------------------------7----9--9---7---5---------5----------|   X2
D------------------------------------------------------7-5-7------------|
A-----------------------------------------------------------------------|
E-----------------------------------------------------------------------|


then:
                                                               (bend)
E------------------------------------8--10--10-8--10--12-10-8-----------|
B-------------------------8----8-10------------------------------10-----|
G---------------5--7--9----9--------------------------------------------|
D--------5--7-----------------------------------------------------------|
A-----------------------------------------------------------------------|
E-----------------------------------------------------------------------|

- then back to the piece above to finish it but you will be able to hear it in the song.

I take no credit for this all tabbed by the lead guitarist Ji Fraser!!!
enjoy

            
            
Suggest correction
Creating personal tab
Creating personal tab
You can edit any tab online and save it as your Personal.

You can edit, replace or remove any tab part or add personal notes – all changes will be seen only by you.

Personal tabs can be accessed anytime from any device, even offline.
Learn more »
comments
print report bad tab
5 comments total. Showing first comments.
+3 reply
rankingrudegirl 10 Sep 07, 2011 09:04 PM

No one's actually thanked you for this mate so cheers! You're a legend.

0 reply
spade827 56 Nov 02, 2011 10:33 PM

thanks heaps man well done

0 reply
spade827 56 Nov 02, 2011 10:35 PM

May i add that the solo at the start goes more like this
E-------8----10--10----8---8--------------------------------------------|
B-------8----10--10----8---8--10---8h8---6------------------------------|
G----------------------------------7h9--9---7---5------------5----------|
D----------------------------------------------------7-5-7--------------|
A-----------------------------------------------------------------------|
E-----------------------------------------------------------------------|

E-------8----10--10----8---8--------------------------------------------|
B-------8----10--10----8---8--10---8h8---6------------------------------|
G----------------------------------7h9--9---7---5-----------------------|
D----------------------------------------------------5-7-5--------------|
A-----------------------------------------------------------------------|
E-----------------------------------------------------------------------|

but well done

guest
You may want to rate the tab now too:
select rating
Wanna post a correction for this tab? Suggest correction