Oops, an error
Loading. Please wait.

Lost tab

version 2
version 2

Whole song

  • This is my first attempt an writing a tab so hopef... Show more
by Six60
696 views 3 this week
no commentswrite comment
1 2 3 4 5
2 more votes to show rating
add to favorites
×
Save as Personal and add changes to this tab that will be seen only by you. Learn more ›
×
You can save this tab as Personal to edit and correct it or add notes. All changes will be seen only by you. Learn more »
launch autoscroll
font size
0
reset
how to read this tab
guitar tuner
edit
Autoscroll
slow
fast
+/-
esc
set tempo
stop
Author
-------------------------------------------------------------------------------
                             LOST - Six60
-------------------------------------------------------------------------------
Tabbed by: Ross ovens
E-mail: rossovens6969@gmail.com

Tuning: standard



this is the tab for the lead guitar and does not have tab for the piano and rythym guitar.
only has the first guitar solo.




INTRO and VERSE:


x4
e|--------------------------------------------------------------------------------------------|
B|-------1--------------------------1----------------------------------1----------------------|
G|------2----2---2------0----------0----0------0----/-----0-----------2----2----2-----2-------|
D|-----2--------2--2---2--2-------2-----------2--2--/----4--4--------2---------2--2--2--------|
A|--0----------0------2--------3-------------3------/---5---------0-----------0-----0---------|
E|--------------------------------------------------------------------------------------------|


x2
e|---------------------------------------------------------------------------------------------------
B|------1-------------------------1------------------------3-----------------------1-----------------
G|-----2----2---2------0---------0----0----0-----0--------0----0----0-----0-------2----2----2-----2--
D|----2--------2--2---2--2------2---------2--2--2--2-----4---------4--0--4--0----2---------2--2--2--2
A|-0----------0------2--------3----------3-----3------3/5---------5-----5------0----------0-----0----
E|---------------------------------------------------------------------------------------------------


at the end of the 2nd time:
e|-------------3------3------------------|
B|--------3------3-----2-----------------|
G|--------0--------0----0----------------|
D|-------0---0---------------------------|
A|------2--------------------------------|
E|---3-----------------------------------|


CHORUS: x2
e|--1----------0----------3---------3-----------|
B|--1----------1----------3---------3-----------|
G|--2----------0----------0---------0-----------|
D|--3----------2----------0---------0-----------|
A|-------------3----------2---------2-----------|
E|------------------------3---------3-----------|


SOLO 1:
e|--------------------------------3----------2h3p2--------------10------------------10---------------
B|---1/5----3h5p3/1p0-----0--1--3----3/5-------------3/8---10b12---------10-8-10b12---10b12-8--------
G|-----------------------------------------------------------------9-------------------------9---9/7-
D|---------------------------------------------------------------------------------------------------
A|---------------------------------------------------------------------------------------------------
E|---------------------------------------------------------------------------------------------------


************************************

| /   slide up
| \   slide down
| h   hammer-on
| p   pull-off
| ~   vibrato
| +   harmonic
| x   Mute note
| b   Bend
| pb  Pre-bend
| br  Bend release
| pbr Pre-bend release
| brb Bend release bend

************************************

            
            
Suggest correction
Creating personal tab
Creating personal tab
You can edit any tab online and save it as your Personal.

You can edit, replace or remove any tab part or add personal notes – all changes will be seen only by you.

Personal tabs can be accessed anytime from any device, even offline.
Learn more »
Give kudos to tab author, rate the tab!
1 2 3 4 5
comments
print report bad tab
guest
You may want to rate the tab now too:
select rating
Wanna post a correction for this tab? Suggest correction