Oops, an error
Loading. Please wait.

Seed Of Filth tab

version 1
version 1

Whole song

Interactive

12,906 views 15 this week
6 commentsread comments
1 2 3 4 5
x 6
add to favorites
×
Save as Personal and add changes to this tab that will be seen only by you. Learn more ›
×
You can save this tab as Personal to edit and correct it or add notes. All changes will be seen only by you. Learn more »
launch autoscroll
font size
0
reset
how to read this tab
guitar tuner
edit
Autoscroll
slow
fast
+/-
esc
set tempo
stop
.  - palm mute           /  - slide up to
\  - slide down to       ~  - vibrato
h  - hammer on           b  - Bend
p  - pull off            Suffixes for bend
t  - tap                 f  - full bend    h - half bend
ph - pinched harmonic    q  - quarter bend t - tap bend
*  - see comment         ^  - Hold bend    r release bend
x  - Stuccatto           ~  - vibrato bend
,  - slight palm mute    () - ghost note, sustained note
"  - tremolo note         <> - Trill

Tuning Drop c or 2 steps down


Intro:
|--------------------------------------------------------------------------------------|
|--------------------------------------------------------------------------------------|
|--------------------------------------------------------------------------------------|
|--------------------------------------------------------------------------------------|
|--------------------------------------------------------------------------------------|
|00000--00000--00000--00000--00000--00000--00000--00000--00000--00000--00000--00000----|
 .....  .....  .....  .....  .....  .....  .....  .....  .....  .....  ....


Verse
|---------------------------------------------------------------------------------------|
|---------------------------------------------------------------------------------------|
|---------------------------------------------------------------------------------------|
|-------------------------------------------------1-------------------------------------|
|-------------------------------------------------1-------------------------------------|
|30000--10000--30000--10000--30000--10000--30000--1--30000--10000--30000--10000--30000--|
 .....  .....  .....  .....  .....  .....  .....     .....  .....  .....
------------------|
------------------|
------------------|
---------------6--|
---------------6--|
-10000--30000--6--|


Chorus 2x
|-------------------------------------------------------------------|
|-------------------------------------------------------------------|
|-------------------------------------------------------------------|
|---7----6-------7----6-------------3----9--9-9---3----11--11-11----|
|---7----6-------7----6-------------3----9--9-9---3----11--11-11----|
|00-7--0-6-0-0-0-7--0-6-0-0-0-0-0-0-3--0-9--9-9-0-3--0-11--11-11----|
 ..    .   . . .    .   . . . . . .    .       .    .
 

Rhythm for solo/outro
|----------------------------------------------------------------|
|----------------------------------------------------------------|
|----------------------------------------------------------------|
|-----------------------------------1----------------------------|
|-----------------------------------1----------------------------|
|0-0-0--0-0-0--0-0-0--0-0-0-0-0-0-0-1----------------------------|
 . . .  . . .  . . .  . . . . . . .
|----------------------------------------------------------------|
|----------------------------------------------------------------|
|----------------------------------------------------------------|
|-----------------------------------4----------------------------|
|-----------------------------------4----------------------------|
|0-0-0--0-0-0--0-0-0--0-0-0-0-0-0-0-4----------------------------|
 . . .  . . .  . . .  . . . . . . .
|----------------------------------------------------------------|
|----------------------------------------------------------------|
|----------------------------------------------------------------|
|-----------------------------------5----------------------------|
|-----------------------------------5----------------------------|
|0-0-0--0-0-0--0-0-0--0-0-0-0-0-0-0-5----------------------------|
 . . .  . . .  . . .  . . . . . . .
|----------------------------------------------------------------|
|----------------------------------------------------------------|
|----------------------------------------------------------------|
|-----------------------------------0----------------------------|
|-----------------------------------0----------------------------|
|0-0-0--0-0-0--0-0-0--0-0-0-0-0-0-0-0----------------------------|
 . . .  . . .  . . .  . . . .

            
            
Suggest correction
Creating personal tab
Creating personal tab
You can edit any tab online and save it as your Personal.

You can edit, replace or remove any tab part or add personal notes – all changes will be seen only by you.

Personal tabs can be accessed anytime from any device, even offline.
Learn more »
comments
print report bad tab
6 comments total. Showing first comments.
0 reply
54tone 227 Jan 02, 2009 04:03 PM

Seed of filth is a 5 32nd note deal for intro, and verse.

0 reply
Blue142 287 Jan 03, 2009 01:26 PM

Yeah it is that was a typo, sorry about that.

0 reply
TheHardcoreKid 88 Jan 11, 2009 11:53 AM

You should've tabbed out the solo.

guest
You may want to rate the tab now too:
select rating
Wanna post a correction for this tab? Suggest correction