Oops, an error
Loading. Please wait.

Accidents Can Happen bass

version 1
version 1

Whole song

Interactive

3,988 views 3 this week
2 commentsread comments
1 2 3 4 5
1 last vote to show rating
add to favorites
×
Save as Personal and add changes to this tab that will be seen only by you. Learn more ›
×
You can save this tab as Personal to edit and correct it or add notes. All changes will be seen only by you. Learn more »
launch autoscroll
font size
0
reset
guitar tuner
edit
Autoscroll
slow
fast
+/-
esc
set tempo
stop
Author
Section 1:
G|------------------------------------------------|
D|------------------------------------------------|
A|7--77--6--66--5--55--0-4--44--0-3-3-3-3-3-3-3-3-|   
D|------------------------------------------------|

G|--------------------------------|
D|--------4-4-4-4-----------------|
A|----------------3-3-3-3-3-3-3-3-|    (x2)
D|3-3-3-3-------------------------|

G|-----------------------------------|
D|-----------------------------------|
A|-----------------3-3-3-3-3-3-3-3-0x|mute
D|-0-0-0-0-0-0-0-0-------------------|

Section 2:
G|----------------------------------------------------------------|
D|----------------------------------------------------------------|
A|----------------------------------------------------------------|    
D|-0-0-0-0-0-0-0-0-0-0-0-0-0-0-0-0-0-0-0-0-0-0-0-0-5-5-5-5-5-5-5-5|

G|----------------------------------------------------------------|
D|----------------------------------------------------------------|
A|-5-5-5-5-5-5-5-5------------------------------------------------|
D|-----------------3-3-3-3-2-2-2-2-0-0-0-0-0-0-0-0-5-5-5-5-5-5-5-5|

G|---------------------------------|
D|---------------------------------|
A|-5-5-5-5-5-5-5-5-----------------|    
D|-----------------3-3-3-3-2-2-2-2-|


G|------------------------------------------------|
D|------------------------------------------------|
A|7--77--6--66--5--55--0-4--44--0-3-3-3-3-3-3-3-3-|   
D|------------------------------------------------|

G|--------------------------------|
D|--------4-4-4-4-----------------|
A|----------------3-3-3-3-3-3-3-3-|    (x2)
D|3-3-3-3-------------------------|

G|----------------------------------------------------------------|
D|----------------------------------------------------------------|
A|-----------------3-3-3-3-3-3-3-3-0-0-0-0-0-0-0-0-3-3-3-3-3-3-3-3|
D|-0-0-0-0-0-0-0-0------------------------------------------------|

G|----------------------------------------------------------------|
D|----------------------------------------------------------------|
A|---------------------------------5-5-5-5-5-5-5-5----------------|   (x2)
D|-0-0-0-0-0-0-0-0-5-5-5-5-5-5-5-5-----------------3-3-3-3-2-2-2-2|

G|------------------------------------------------|
D|------------------------------------------------|
A|7--77--6--66--5--55--0-4--44--0-3-3-3-3-3-3-3-3x| mute  
D|------------------------------------------------|

Section 3:
G|---------------------------------|
D|---------------------------------|
A|-----------------3-3-3-3-3-3-3-3-|   (x2)
D|-0-0-0-0-0-0-0-0-----------------|

G|--------------------------------|
D|--------4-4-4-4-----------------|
A|----------------3-3-3-3-3-3-3-3-|    (x2)
D|3-3-3-3-------------------------|

G|----------------------------------|
D|----------------------------------|
A|----------------3-3-3-3-3-3-3-3-0-|
D|0-0-0-0-0-0-0-0-------------------|


            
            
Suggest correction
Creating personal tab
Creating personal tab
You can edit any tab online and save it as your Personal.

You can edit, replace or remove any tab part or add personal notes – all changes will be seen only by you.

Personal tabs can be accessed anytime from any device, even offline.
Learn more »
Give kudos to tab author, rate the tab!
1 2 3 4 5
comments
print report bad tab
2 comments total.
0 reply
sshsguitarist21 10 Feb 02, 2009 05:55 AM

I followed you up to section 2....I recognize the chorus and the first verse...could you label what's what?

0 reply
sshsguitarist21 10 Feb 02, 2009 06:01 AM

nvm...I just figured it out looks and sounds good man...thanks

guest
You may want to rate the tab now too:
select rating
Wanna post a correction for this tab? Suggest correction