Oops, an error
Loading. Please wait.
We have an official Life Is Beautiful tab made by UG professional guitarists. Check out the tab »
×
59,430 views 30 this week
9 commentsread comments
1 2 3 4 5
x 11
add to favorites
×
Save as Personal and add changes to this tab that will be seen only by you. Learn more ›
×
You can save this tab as Personal to edit and correct it or add notes. All changes will be seen only by you. Learn more »
launch autoscroll
font size
0
reset
how to read this tab
guitar tuner
edit
Autoscroll
slow
fast
+/-
esc
set tempo
stop
life is beautiful
sixx am
drop D
 
[Clean]
E|------------|-----------|-----------|
B|------------|-----------|------3----|
G|---7---9--7-|-----------|---5------3|
D|-----7---5--|--5--5---7-|-3---3--3--|
A|-5----------|-3--3--3---|1----------|
D|0-----------|3----------|-----------|

[Distortion]
E|-----------------------|
B|-----------------------|
G|-----------------------|
D|7--7--7--7--7--7--7--7-|
A|5--5--5--5--5--5--5--5-|
D|5--5--5--5--5--5--5--5-|

E|------------------------------------------------|
B|------------------------------------------------|
G|-----------------------3------------------------|
D|0----------3-----------3-----------5----------0-|
A|0----------3-----------1-----------5----------0-|
D|0----------3-----------------------5----------0-|
                                                    
E|------------------|----------------|----------------|--------------|
B|------------------|----------------|----------------|--------------|
G|------------------|----------------|----------------|--------------|
D|0h10h-2-10h12--12-|10h12-10h12--15-|10h12-10h12--12-|10h12-6p5p3p0-|
A|0h10h12-10h12--12-|10h12-10h12--15-|10h12-10h12--12-|10h12-6p5p3p0-|
D|0h10h12-10h12--12-|10h12-10h12--15-|10h12-10h12--12-|10h12-6p5p3p0-|

E|------------------|----------------|----------------|----------------|
B|------------------|----------------|----------------|----------------|
G|------------------|----------------|----------------|----------------|
D|0h10h12-10h12--12-|10h12-10h12--15-|10h12-10h12--12-|6p5p3p0-6p5p3p0-|
A|0h10h12-10h12--12-|10h12-10h12--15-|10h12-10h12--12-|6p5p3p0-6p5p3p0-|
D|0h10h12-10h12--12-|10h12-10h12--15-|10h12-10h12--12-|6p5p3p0-6p5p3p0-|



************************************

| h  Hammer-on
| p  Pull-off

************************************

            
            
Suggest correction
Creating personal tab
Creating personal tab
You can edit any tab online and save it as your Personal.

You can edit, replace or remove any tab part or add personal notes – all changes will be seen only by you.

Personal tabs can be accessed anytime from any device, even offline.
Learn more »
comments
print report bad tab
9 comments total. Showing first comments.
0 reply
RainBeforeDawn5 61 Dec 15, 2007 11:21 AM

stop making Life is beautiful comments everyone, Jesus christ theres like fifty and none for other Sixx Am songs...we
know how to play it...move on

0 reply
StillARebel24 26 Dec 15, 2007 08:01 PM

well if you know how to play it, why isnt there a right tab you mother ****er!? stop bitching and tab out some of the
other songs yourself you lazy ****nut. this what my guitar teacher taught me, so i posted it cuz no one else has it
right, so **** off shit licker.

0 reply
StillARebel24 26 Dec 16, 2007 03:18 PM

0h10h 2 supposed to be 12. on the d string. my bad

guest
You may want to rate the tab now too:
select rating
Wanna post a correction for this tab? Suggest correction