Oops, an error
Loading. Please wait.
We have an official Life Is Beautiful tab made by UG professional guitarists. Check out the tab »
×
18,334 views 9 this week
3 commentsread comments
1 2 3 4 5
x 7
add to favorites
×
Save as Personal and add changes to this tab that will be seen only by you. Learn more ›
×
You can save this tab as Personal to edit and correct it or add notes. All changes will be seen only by you. Learn more »
launch autoscroll
font size
0
reset
how to read this tab
guitar tuner
edit
Autoscroll
slow
fast
+/-
esc
set tempo
stop
Author
Tab: Life is Beautiful
Artist: Six Am
Tabbed by: epiboy123 or Barney
Email: weeguitarrocks@yahoo.com
 This song is tuned to Drop D (quarter turn on 6th string) 
I figured this song by ear. It sounds correct to me. Enjoy!
All the tabs that are connected are played in unison
/slide up           x= mute
\slide down
P= pull off
H= hammer on
Pm=palm mute

Guitar 1
Acoustic or Acoustic effect Let Ring
E|-----------------------------------------------------------|
B|-----------------------------------------------------------|
G|-------7---9--7---------0---0--2--------5---7--3-----------|
D|---------0----------------0---------------0----------------|
A|---0----------------0-----------------8--------------------|
D|-0----------------3-----------------8----------------------|

Guitar 2
Rock in part
E|----------------------|
B|--------------------- |
G|----------------------|
D|-5--5--5--5--5555555--|
A|-5--5--5--5--5555555--|
D|-5--5--5--5--5555555--|

Guitar 1                                                                  Continue playing…..
|E-------------------------|--------------------------------|
|B-------------------------|--------------------------------|
|G-------------------------|--------------------------------|
|D-13\15/13--12--7--5--7---|-10\12/10--8--7--3-55-77-5-3-2p3|
|A-13\15/13--12--7--5--7---|-10\12/10--8--7--3-55-77-5-3-2p3|
|D-------------------------|--------------------------------|
|                                                           |
|Guitar 2:                                                  |
|E-----------------------|----------------------------------|
|B-----------------------|----------------------------------|
|G-----------------------|----------------------------------|
|D-12~---7~--xx---5--7---|-8~--7--3--5----------------------|
|A-12~---7~--xx---5--7---|-8~--7--3--5----------------------|
|D-12~---7~--xx---5--7---|-8~--7--3--5----------------------|

 Guitar 1	
E------------------------------------------------------------------------|
B------------------------------------------------------------------------|
G------------------------------------------------------------------------|
D------------------------------------------------------------------------|
A-0-10-12-10-12-12-10-12-10-12-15-121212-10-12-12-10-12------------------|
D-0-10-12-10-12-12-10-12-10-12-15-121212-10-12-12-10-12---6--5--3--0-----|

Guitar1: continue playing in unison with g2 (guitar 2)
|E---------------------------------------------------------------------|
|B---------------------------------------------------------------------|
|G---------------------------------------------------------------------|
|D---------------------------------------------------------------------|
|A-0-10-12-10-12-12-10-12-10-12-15-121212-10-12------------------------|
|D-0-10-12-10-12-12-10-12-10-12-15-121212-10-12---0-6-5-3-0—--6-5—3-0--|
|		                                                       |
|Guitar 2:                                                             |
|E---------------------------------------------------------------------|
|B---------------------------------------------------------------------|
|G---------------------------------------------------------------------|
|D-0-10-12-10-12-12-10-12-10-12-15-121212-10-12---0-6-5-3-0---6-5-3-0--|
|A-0-10-12-10-12-12-10-12-10-12-15-121212-10-12------------------------|
|D---------------------------------------------------------------------|
	
Guitar 1 
E-----------------------------------------|
B-----------------------------------------|
G-----------------------------------------| x3
D--12—12p10-12-12p10-12-12p10-12-15-12-10-|
A-----------------------------------------|
D-----------------------------------------|

Guitar1 continue playing
E-------------------------------------------------------|
B-------------------------------------------------------|
G-------------------------------------------------------|
D--12-12p10-12—12p10--15—12p10-12--12p10-12-15-12-10----|x1
A-------------------------------------------------------|
D-------------------------------------------------------|

Guitar 1 pre-chorus
|E-----------------------------------------|
|B-----------------------------------------|
|G-----------------------------------------| x3
|D--12—12p10-12-12p10-12-12p10-12-15-12-10-|
|A-----------------------------------------|
|D-----------------------------------------|
|                                          |
|					   |		
|Guitar 2 pre- chorus play with g1         |
|E------------------|----------------------|
|B------------------|----------------------|
|G------------------|----------------------|
|D-12~---15~---8~---|-55--xxxx-55--xxxx----|
|A-12~---15~---8~---|-55--xxxx-55--xxxx----|
|D-12~---15~---8~---|-55--xxxx-55--xxxx----|

Guitar 1            Chorus                                                      
|E------------------|--------------------------------|
|B------------------|--------------------------------|
|G------------------|--------------------------------|
|D---12--7--5--7----|-10\12/10--8--7--3-5------------|
|A---12--7--5--7----|-10\12/10--8--7--3-5------------|
|D------------------|--------------------------------|
|                                                    |
|Guitar 2:                                           |
|E-----------------------|---------------------------|
|B-----------------------|---------------------------|
|G-----------------------|---------------------------|
|D-12~---7~--xx---5--7---|-8~--7--3--5---------------|
|A-12~---7~--xx---5--7---|-8~--7--3--5---------------|
|D-12~---7~--xx---5--7---|-8~--7--3--5---------------|

Guitar 1                                                                  Continue playing…..
|E--------------------|--------------------|----------------|
|B--------------------|--------------------|----------------| 
|G--------------------|--------------------|----------------|  
|D------12--7--5--7---|-10\12/10--8--7--3-5|-7-5-3-2p3------|   
|A------12--7--5--7---|-10\12/10--8--7--3-5|-7-5-3-2p3------|    
|D--------------------|--------------------|----------------|     
|Guitar 2:                                                  |       
|E-----------------------|----------------------------------|        
|B-----------------------|----------------------------------|       
|G-----------------------|----------------------------------|      
|D-12~---7~--xx---5--7---|-8~--7--3--5----------------------|       
|A-12~---7~--xx---5--7---|-8~--7--3--5----------------------| 
|D-12~---7~--xx---5--7---|-8~--7--3--5----------------------|

Guitar 1	
E------------------------------------------------------------------------|
B------------------------------------------------------------------------|
G------------------------------------------------------------------------|
D------------------------------------------------------------------------|
A-0-10-12-10-12-12-10-12-10-12-15-121212-10-12-12-10-12------------------|
D-0-10-12-10-12-12-10-12-10-12-15-121212-10-12-12-10-12---6--5--3--0-----|

Guitar1: continue playing in unison with g2 (guitar 2)
|E---------------------------------------------------------------------|
|B---------------------------------------------------------------------|
|G---------------------------------------------------------------------|
|D---------------------------------------------------------------------|
|A-0-10-12-10-12-12-10-12-10-12-15-121212-10-12------------------------|
|D-0-10-12-10-12-12-10-12-10-12-15-121212-10-12---0-6-5-3-0—--6-5—3-0--| 
|                                                                      |
|Guitar 2:                                                             |
|E---------------------------------------------------------------------|
|B---------------------------------------------------------------------|
|G---------------------------------------------------------------------|
|D-0-10-12-10-12-12-10-12-10-12-15-121212-10-12---0-6-5-3-0---6-5-3-0--|
|A-0-10-12-10-12-12-10-12-10-12-15-121212-10-12------------------------|
|D---------------------------------------------------------------------|
	
Guitar 1 
E-----------------------------------------|
B-----------------------------------------|
G-----------------------------------------| x3
D--12—12p10-12-12p10-12-12p10-12-15-12-10-|
A-----------------------------------------|
D-----------------------------------------|

Guitar1 continue playing
E-------------------------------------------------------|
B-------------------------------------------------------|
G-------------------------------------------------------|
D--12-12p10-12—12p10--12—12p10-12--12p10-12-15-12-10----|x1
A-------------------------------------------------------|
D-------------------------------------------------------|

Guitar 1 pre-chorus
|E-----------------------------------------|
|B-----------------------------------------|
|G-----------------------------------------| x3
|D--12—12p10-12-12p10-12-12p10-12-15-12-10-|
|A-----------------------------------------|
|D-----------------------------------------|
|                                          |
|							 |
|Guitar 2 pre- chorus play with g1         |
|E------------------|----------------------|
|B------------------|----------------------|
|G------------------|----------------------|
|D-12~---15~---8~---|-55--xxxx-55--xxxx----|
|A-12~---15~---8~---|-55--xxxx-55--xxxx----|
|D-12~---15~---8~---|-55--xxxx-55--xxxx----|
There is some effect in this part (or notes)that 
I cant figure out. So I’ll make some update sooner or
Later or maybe u can figure it out urself


Guitar 1            Chorus                                                      
|E------------------|--------------------------------|
|B------------------|--------------------------------|
|G------------------|--------------------------------|
|D---12--7--5--7----|-10\12/10--8--7--3-5------------|
|A---12--7--5--7----|-10\12/10--8--7--3-5------------|
|D------------------|--------------------------------|
|                                                    |
|Guitar 2:                                           |
|E-----------------------|---------------------------|
|B-----------------------|---------------------------|
|G-----------------------|---------------------------|
|D-12~---7~--xx---5--7---|-8~--7--3--5---------------|
|A-12~---7~--xx---5--7---|-8~--7--3--5---------------|
|D-12~---7~--xx---5--7---|-8~--7--3--5---------------|

Guitar 1                                                                  Continue playing…..
|E--------------------|--------------------|----------------|
|B--------------------|--------------------|----------------| 
|G--------------------|--------------------|----------------|  
|D------12--7--5--7---|-10\12/10--8--7--3-5|-7-5-3-2p3------|   
|A------12--7--5--7---|-10\12/10--8--7--3-5|-7-5-3-2p3------|    
|D--------------------|--------------------|----------------|     
|Guitar 2:                                                  |       
|E-----------------------|----------------------------------|        
|B-----------------------|----------------------------------|       
|G-----------------------|----------------------------------|      
|D-12~---7~--xx---5--7---|-8~--7--3--5----------------------|       
|A-12~---7~--xx---5--7---|-8~--7--3--5----------------------| 
|D-12~---7~--xx---5--7---|-8~--7--3--5----------------------|

SOLO (if u cant play this… u suck)
E----------------|---------------|---------------|-----------------|
B----------------|---------------|---------------|-----------------|
G----------------|---------------|---------------|----------2-0----|
D-------2-3-2-3-5|------2-3-2-3-5|------0-2-0-2-3|------0h2-----3-2|
A-5-0-5----------|5-0-5----------|4-0-4----------|4-0-4------------|
D----------------|---------------|---------------|-----------------|
  (Palm mute each note)

E----------------|---------------|---------------|-----------------|
B----------------|---------------|---------------|-----------------|
G----------------|---------------|---------------|----------2-0----|
D-------2-3-2-3-5|------2-3-2-3-5|------0-2-0-2-3|------0h2-----3-2|
A-5-0-5----------|5-0-5----------|4-0-4----------|4-0-4------------|
D----------------|---------------|---------------|-----------------|

E--------------------------|-------------------------|
B--------------------------|-------------------------|
G-----------------------12-|----------------------12-|
D--12----12-14-15-14-15----|-12----12-14-15-14-15----|
A-----12-------------------|----12-------------------|
D--------------------------|-------------------------|

E------------------------------|----------------------|
B------------------------------|----------------------|
G------------------------------|--------12--14-12-----|
D--11----11-12-14-12-14-15--11-|----11-----------15-14|
A-----12-----------------------|-12-------------------|
D------------------------------|----------------------|

E----------------|---------------------|
B—3b—-5b--6b—8b--|-2b—3b—5b—2b—3b------|
G----------------|---------------------|
D----------------|---------------------|
A----------------|---------------------|
D----------------|---------------------|
 End of solo

Guitar 1
Acoustic or Acoustic effect
E|------------------------------------------------------------------|
B|------------------------------------------------------------------|
G|-------7---9--7---------0---0--2--------5---7--3----------3-2-0-2-|
D|---------0----------------0---------------0-----------5-0---------|x3
A|---0----------------0-----------------8-------------5-------------|
D|-0----------------3-----------------8-------------5---------------|

Guitar 1            Chorus                                                      
|E------------------|--------------------------------|
|B------------------|--------------------------------|
|G------------------|--------------------------------|
|D---12--7--5--7----|-10/12\10--8--7--3-5------------|
|A---12--7--5--7----|-10/12\10--8--7--3-5------------|
|D------------------|--------------------------------|
|                                                    |
|Guitar 2:                                           |
|E-----------------------|---------------------------|
|B-----------------------|---------------------------|
|G-----------------------|---------------------------|
|D-12~---7~--xx---5--7---|-8~--7--3--5---------------|
|A-12~---7~--xx---5--7---|-8~--7--3--5---------------|
|D-12~---7~--xx---5--7---|-8~--7--3--5---------------|

Guitar 1                                                                  Continue playing…..
|E--------------------|--------------------|----------------|
|B--------------------|--------------------|----------------| 
|G--------------------|--------------------|----------------|  
|D------12--7--5--7---|-10\12/10--8--7--3-5|-7-5-3-2p3------|   
|A------12--7--5--7---|-10\12/10--8--7--3-5|-7-5-3-2p3------|    
|D--------------------|--------------------|----------------|     
|Guitar 2:                                                  |       
|E-----------------------|----------------------------------|        
|B-----------------------|----------------------------------|       
|G-----------------------|----------------------------------|      
|D-12~---7~--xx---5--7---|-8~--7--3--5----------------------|       
|A-12~---7~--xx---5--7---|-8~--7--3--5----------------------| 
|D-12~---7~--xx---5--7---|-8~--7--3--5----------------------|

Guitar 1	
E------------------------------------------------------------------------|
B------------------------------------------------------------------------|
G------------------------------------------------------------------------|
D------------------------------------------------------------------------|
A-0-10-12-10-12-12-10-12-10-12-15-121212-10-12-12-10-12------------------|
D-0-10-12-10-12-12-10-12-10-12-15-121212-10-12-12-10-12---6--5--3--0-----|

Guitar1: continue playing in unison with g2 (guitar 2)
|E---------------------------------------------------------------------|
|B---------------------------------------------------------------------|
|G---------------------------------------------------------------------|
|D---------------------------------------------------------------------|
|A-0-10-12-10-12-12-10-12-10-12-15-121212-10-12------------------------|
|D-0-10-12-10-12-12-10-12-10-12-15-121212-10-12---0-6-5-3-0—--6-5—3-0--|
|Guitar 2:                                                             |
|E---------------------------------------------------------------------|
|B---------------------------------------------------------------------|
|G---------------------------------------------------------------------|
|D-0-10-12-10-12-12-10-12-10-12-15-121212-10-12---0-6-5-3-0---6-5-3-0--|
|A-0-10-12-10-12-12-10-12-10-12-15-121212-10-12------------------------|
|D---------------------------------------------------------------------|

            
            
Suggest correction
Creating personal tab
Creating personal tab
You can edit any tab online and save it as your Personal.

You can edit, replace or remove any tab part or add personal notes – all changes will be seen only by you.

Personal tabs can be accessed anytime from any device, even offline.
Learn more »
comments
print report bad tab
3 comments total.
0 reply
thekidd27 10 Jul 19, 2009 06:38 PM

very nice tab man

0 reply
Crystalvalen 10 Feb 04, 2010 12:23 PM

Really nice. Much simpler than the other version, but way easier to play. I love your note about the solo too. :)

0 reply
-Annihilation- 10 Jan 17, 2011 04:09 AM

Spot on,bro

guest
You may want to rate the tab now too:
select rating
Wanna post a correction for this tab? Suggest correction