Oops, an error
Loading. Please wait.

Claire Danes Poster intro tab

by Size 14
1,116 views 1 this week
4 commentsread comments
1 2 3 4 5
3 more votes to show rating
add to favorites
×
Save as Personal and add changes to this tab that will be seen only by you. Learn more ›
×
You can save this tab as Personal to edit and correct it or add notes. All changes will be seen only by you. Learn more »
launch autoscroll
font size
0
reset
how to read this tab
guitar tuner
edit
Autoscroll
slow
fast
+/-
esc
set tempo
stop
Author
Intro:

Lead
|--------------------|-----------------|-------------------------|
|--------------------|-----------------|-------------------------|
|--8-8-8-9-11-11-9-8-|-6-6-6-8-9-9-8-6-|-8-8-8-8-6-6-6-6-4-4-4-4-|
|--------------------|-----------------|-------------------------|
|--------------------|-----------------|-------------------------|
|--------------------|-----------------|-------------------------|

Rhythm
|--------------------|-----------------|-------------------------|
|--------------------|-----------------|-------------------------|
|--------------------|-----------------|-------------------------|
|--------------------|-----------------|-13------11------9-------|
|--------------------|-----------------|-13------11------9-------|
|--------------------|-----------------|-11-------9------7-------|

I'll update it later (hopefully) if I have the time. Already figured out first part of 
verse anyway...

franzrebs12492@yahoo.com

~~~~~~~~~~~~~~~~~~~~~~~~~~~~~~~~~~~
They are a signed band, but their last album was released in 1997, that's why this band 
quite rare on the Internet.

This link provides info about them:

http://www.myspace.com/sizefourteen/

AND to prove that they are a signed band:

http://www.artistdirect.com/nad/music/artist/card/0,,583999,00.html

            
            
Suggest correction
Creating personal tab
Creating personal tab
You can edit any tab online and save it as your Personal.

You can edit, replace or remove any tab part or add personal notes – all changes will be seen only by you.

Personal tabs can be accessed anytime from any device, even offline.
Learn more »
Give kudos to tab author, rate the tab!
1 2 3 4 5
comments
print report bad tab
4 comments total. Showing first comments.
0 reply
katieb13 72 Mar 07, 2007 01:01 PM

e|-------------------------------------------------------------------
B|-------------------------------------------------------------------
G|--4----------------------------------------------------------------
D|--4----4-----6-----4----2------------------------------------------
A|--2----4-----6-----4----2------------------------------------------
E|-------2-----4-----2----0------------------------------------------

i got this from a acoustic video of bowling for soup playing this. this is the power chords you can strum or hit ounce.

0 reply
l_ampao_l 101 Apr 01, 2007 08:39 PM

thanks

0 reply
l_ampao_l 101 Apr 01, 2007 08:39 PM

i really havent gotten around to finishing out the whole song. im darn lazy

guest
You may want to rate the tab now too:
select rating
Wanna post a correction for this tab? Suggest correction