Oops, an error
Loading. Please wait.

Cannabis tab

version 1
version 1

Whole song

Interactive

by Ska-P
15,673 views 6 this week
no commentswrite comment
1 2 3 4 5
x 3
add to favorites
×
Save as Personal and add changes to this tab that will be seen only by you. Learn more ›
×
You can save this tab as Personal to edit and correct it or add notes. All changes will be seen only by you. Learn more »
launch autoscroll
font size
0
reset
how to read this tab
guitar tuner
edit
Autoscroll
slow
fast
+/-
esc
set tempo
stop
Author
-------------------------------------------------------------------------------
                             Cannabis - Ska-P
-------------------------------------------------------------------------------

Tabbed by: Dan Wright
Email: muzikvlr1714@yahoo.com

Tuning: Standard (eBGDAE)


    1   +   2   +      1   +   2   +      1   +   2   +   
e|------------------|--r---7---r---7---|--r---7---r---7---|
B|------------------|--r---8---r---8---|--r---8---r---8---|
G|------------------|--r---7---r---7---|--r---7---r---7---|
D|------------------|------------------|------------------|
A|------------------|------------------|------------------|
E|------------------|------------------|------------------|

    1   +   2   +      1   +   2   +      1   +   2   +   
e|--r---5---r---5---|--r---5---r---5---|--r---3---r---3---|
B|--r---7---r---7---|--r---7---r---7---|--r---5---r---5---|
G|--r---7---r---7---|--r---7---r---7---|--r---5---r---5---|
D|------------------|------------------|------------------|
A|------------------|------------------|------------------|
E|------------------|------------------|------------------|

    1   +   2   +      1   +   2   +      1   +   2   +   
e|--r---3---r---3---|--r---3---r---3---|--3---r-----------|
B|--r---5---r---5---|--r---5---r---5---|--5---r-----------|
G|--r---5---r---5---|--r---5---r---5---|--5---r-----------|
D|------------------|------------------|------------------|
A|------------------|------------------|------------------|
E|------------------|------------------|------------------|

    1   +   2   +      1   +   2   +      1   +   2   +   
e|------7---r---7---|--r---7---r---7---|--r---5---r---5---|
B|------8---r---8---|--r---8---r---8---|--r---7---r---7---|
G|------7---r---7---|--r---7---r---7---|--r---7---r---7---|
D|------------------|------------------|------------------|
A|------------------|------------------|------------------|
E|------------------|------------------|------------------|

    1   +   2   +      1   +   2   +      1   +   2   +   
e|--r---5---r---5---|--r---3---r---3---|--r---3---r---3---|
B|--r---5---r---5---|--r---5---r---5---|--r---5---r---5---|
G|--r---7---r---7---|--r---5---r---5---|--r---5---r---5---|
D|------------------|------------------|------------------|
A|------------------|------------------|------------------|
E|------------------|------------------|------------------|

    1   +   2   +      1   +   2   +      1   +   2   +   
e|--r---3---r---3---|--3---r-----------|------------------|
B|--r---5---r---5---|--5---r-----------|--3---r-----------|
G|--r---5---r---5---|--5---r-----------|--4---r-----------|
D|------------------|------------------|--5---r-----------|
A|------------------|------------------|------------------|
E|------------------|------------------|------------------|

    1   +   2   +      1   +   2   +      1   +   2   +   
e|--2---------------|-(3)--------------|--3---r-----------|
B|--3---------------|-(2)--------------|--5---r-----------|
G|--2---------------|-(3)--------------|--5---r-----------|
D|------------------|------------------|------------------|
A|------------------|------------------|------------------|
E|------------------|------------------|------------------|

    1   +   2   +      1   +   2   +      1   +   2   +   
e|------------------|--2---r-----------|------------------|
B|--3---r-----------|--3---r-----------|------------------|
G|--4---r-----------|--2---r-----------|------------------|
D|--5---r-----------|------------------|------------------|
A|------------------|------------------|------------------|
E|------------------|------------------|------------------|

    1   +   2   +      1   +   2   +      1   +   2   +   
e|--3-r-3-r-3---3---|------------------|--2-r-2-r-2-r-2-2-|
B|--5-r-5-r-5---5-3-|--r-3-r-3-3-3-3-3-|--3-r-3-r-3-r-3-3-|
G|--5-r-5-r-5---5-4-|--r-4-r-4-4-4-4-4-|--2-r-2-r-2-r-2-2-|
D|----------------5-|--r-5-r-5-5-5-5-5-|------------------|
A|------------------|------------------|------------------|
E|------------------|------------------|------------------|

    1   +   2   +      1   +   2   +      1   +   2   +   
e|--r-2-r-2-2-2-2-2-|--3-r-3-r-3-r-3---|------------------|
B|--r-3-r-3-3-3-3-3-|--5-r-5-r-5-r-5-3-|--r-3-r-3-3-3-3-3-|
G|--r-2-r-2-2-2-2-2-|--5-r-5-r-5-r-5-4-|--r-4-r-4-4-4-4-4-|
D|------------------|----------------5-|--r-5-r-5-5-5-5-5-|
A|------------------|------------------|------------------|
E|------------------|------------------|------------------|

    1   +   2   +      1   +   2   +      1   +   2   +   
e|--5-r-5-r-5-----5-|--r-5-r-5-5-r-5---|--3-r-3-r-3---3---|
B|--7-r-7-r-7-----7-|--r-7-r-7-7-r-7---|--5-r-5-r-5---5-3-|
G|--7-r-7-r-7-----7-|--r-7-r-7-7-r-7---|--5-r-5-r-5---5-4-|
D|------------------|------------------|----------------5-|
A|------------------|------------------|------------------|
E|------------------|------------------|------------------|

    1   +   2   +      1   +   2   +      1   +   2   +   
e|------------------|--2-r-2-r-2-r-2-2-|--r-2-r-2-2-2-2-2-|
B|--r-3-r-3-3-3-3-3-|--3-r-3-r-3-r-3-3-|--r-3-r-3-3-3-3-3-|
G|--r-4-r-4-4-4-4-4-|--2-r-2-r-2-r-2-2-|--r-2-r-2-2-2-2-2-|
D|--r-5-r-5-5-5-5-5-|------------------|------------------|
A|------------------|------------------|------------------|
E|------------------|------------------|------------------|

    1   +   2   +      1   +   2   +      1   +   2   +   
e|--3-r-3-r-3-r-3---|------------------|--5-r-5-r-5-----5-|
B|--5-r-5-r-5-r-5-3-|--r-3-r-3-3-3-3-3-|--7-r-7-r-7-----7-|
G|--5-r-5-r-5-r-5-4-|--r-4-r-4-4-4-4-4-|--7-r-7-r-7-----7-|
D|----------------5-|--r-5-r-5-5-5-5-5-|------------------|
A|------------------|------------------|------------------|
E|------------------|------------------|------------------|

    1   +   2   +      1   +   2   +      1   +   2   +   
e|--r-5-r-5-5-r-5---|--r---7---r---7---|--r---7---r---7---|
B|--r-7-r-7-7-r-7---|--r---8---r---8---|--r---8---r---8---|
G|--r-7-r-7-7-r-7---|--r---7---r---7---|--r---7---r---7---|
D|------------------|------------------|------------------|
A|------------------|------------------|------------------|
E|------------------|------------------|------------------|

    1   +   2   +      1   +   2   +      1   +   2   +   
e|--r---5---r---5---|--r---5---r---5---|--r---3---r---3---|
B|--r---7---r---7---|--r---5---r---5---|--r---5---r---5---|
G|--r---7---r---7---|--r---7---r---7---|--r---5---r---5---|
D|------------------|------------------|------------------|
A|------------------|------------------|------------------|
E|------------------|------------------|------------------|

    1   +   2   +      1   +   2   +      1   +   2   +   
e|--r---3---r---3---|--r---3---r---3---|--3---r-----------|
B|--r---5---r---5---|--r---5---r---5---|--5---r-----------|
G|--r---5---r---5---|--r---5---r---5---|--5---r-----------|
D|------------------|------------------|------------------|
A|------------------|------------------|------------------|
E|------------------|------------------|------------------|

    1   +   2   +      1   +   2   +      1   +   2   +   
e|--r---7---r---7---|--r---7---r---7---|--r---5---r---5---|
B|--r---8---r---8---|--r---8---r---8---|--r---7---r---7---|
G|--r---7---r---7---|--r---7---r---7---|--r---7---r---7---|
D|------------------|------------------|------------------|
A|------------------|------------------|------------------|
E|------------------|------------------|------------------|

    1   +   2   +      1   +   2   +      1   +   2   +   
e|--r---5---r---5---|--r---3---r---3---|--r---3---r---3---|
B|--r---5---r---5---|--r---5---r---5---|--r---5---r---5---|
G|--r---7---r---7---|--r---5---r---5---|--r---5---r---5---|
D|------------------|------------------|------------------|
A|------------------|------------------|------------------|
E|------------------|------------------|------------------|

    1   +   2   +      1   +   2   +      1   +   2   +   
e|--r---3---r---3---|--3---r-----------|------------------|
B|--r---5---r---5---|--5---r-----------|--3---r-----------|
G|--r---5---r---5---|--5---r-----------|--4---r-----------|
D|------------------|------------------|--5---r-----------|
A|------------------|------------------|------------------|
E|------------------|------------------|------------------|

    1   +   2   +      1   +   2   +      1   +   2   +   
e|--2---------------|-(2)--------------|--3---r-----------|
B|--3---------------|-(3)--------------|--5---r-----------|
G|--2---------------|-(2)--------------|--5---r-----------|
D|------------------|------------------|------------------|
A|------------------|------------------|------------------|
E|------------------|------------------|------------------|

    1   +   2   +      1   +   2   +      1   +   2   +   
e|------------------|--2---r-----------|------------------|
B|--3---r-----------|--3---r-----------|------------------|
G|--4---r-----------|--2---r-----------|------------------|
D|--5---r-----------|------------------|------------------|
A|------------------|------------------|------------------|
E|------------------|------------------|------------------|

    1   +   2   +      1   +   2   +      1   +   2   +   
e|------------------|------------------|------------------|
B|--r---3---r---3---|--r---5---r---5---|--r---7---r---7---|
G|--r---4---r---4---|--r---5---r---5---|--r---7---r---7---|
D|--r---5---r---5---|--r---5---r---5---|--r---7---r---7---|
A|------------------|------------------|------------------|
E|------------------|------------------|------------------|

    1   +   2   +      1   +   2   +      1   +   2   +   
e|------------------|------------------|------------------|
B|--r---7---r-7-7---|--r---0---r---0---|--r---5---r---5---|
G|--r---7---r-7-7---|--r---7---r---7---|--r---5---r---5---|
D|--r---7---r-7-7---|--r---5---r---5---|--r---5---r---5---|
A|------------------|------------------|------------------|
E|------------------|------------------|------------------|

    1   +   2   +      1   +   2   +      1   +   2   +   
e|------------------|------------------|------------------|
B|--r---7---r---7---|--r---7---r-7-7---|--r---0---r---0---|
G|--r---7---r---7---|--r---7---r-7-7---|--r---7---r---7---|
D|--r---7---r---7---|--r---7---r-7-7---|--r---5---r---5---|
A|------------------|------------------|------------------|
E|------------------|------------------|------------------|

    1   +   2   +      1   +   2   +      1   +   2   +   
e|------------------|------------------|------------------|
B|--r---5---r---5---|--r---7---r---7---|--r---7---r-7-7---|
G|--r---5---r---5---|--r---7---r---7---|--r---7---r-7-7---|
D|--r---5---r---5---|--r---7---r---7---|--r---7---r-7-7---|
A|------------------|------------------|------------------|
E|------------------|------------------|------------------|

    1   +   2   +      1   +   2   +      1   +   2   +   
e|------------------|------------------|------------------|
B|--r---0---r---0---|--r---5---r---5---|--r---7---r---7---|
G|--r---7---r---7---|--r---5---r---5---|--r---7---r---7---|
D|--r---5---r---5---|--r---5---r---5---|--r---7---r---7---|
A|------------------|------------------|------------------|
E|------------------|------------------|------------------|

    1   +   2   +      1   +   2   +      1   +   2   +   
e|------------------|------------------|------------------|
B|--r---7---r-7-7---|------------------|------------------|
G|--r---7---r-7-7---|------------------|------------------|
D|--r---7---r-7-7---|------------------|--------2---r-5---|
A|------------------|--------2---r-5---|--3---r-----------|
E|------------------|--3---r-----------|------------------|

    1   +   2   +      1   +   2   +      1   +   2   +   
e|------------------|------------------|------------------|
B|------------------|------------------|------------------|
G|------------------|------------------|------------------|
D|--------4---r-7---|--4---r-----------|------------------|
A|--5---r-----------|--------5---r-----|--------2---r-5---|
E|------------------|--------------5---|--3---r-----------|

    1   +   2   +      1   +   2   +      1   +   2   +   
e|------------------|------------------|------------------|
B|------------------|------------------|------------------|
G|------------------|------------------|------------------|
D|--------2---r-5---|------------------|------------------|
A|--3---r-----------|--5---r-----------|------------------|
E|------------------|------------------|------------------|

    1   +   2   +      1   +   2   +      1   +   2   +   
e|--3-r-3-r-3---3---|------------------|--2-r-2-r-2-r-2-2-|
B|--5-r-5-r-5---5-3-|--r-3-r-3-3-3-3-3-|--3-r-3-r-3-r-3-3-|
G|--5-r-5-r-5---5-4-|--r-4-r-4-4-4-4-4-|--2-r-2-r-2-r-2-2-|
D|----------------5-|--r-5-r-5-5-5-5-5-|------------------|
A|------------------|------------------|------------------|
E|------------------|------------------|------------------|

    1   +   2   +      1   +   2   +      1   +   2   +   
e|--r-2-r-2-2-2-2-2-|--3-r-3-r-3-r-3---|------------------|
B|--r-3-r-3-3-3-3-3-|--5-r-5-r-5-r-5-3-|--r-3-r-3-3-3-3-3-|
G|--r-2-r-2-2-2-2-2-|--5-r-5-r-5-r-5-4-|--r-4-r-4-4-4-4-4-|
D|------------------|----------------5-|--r-5-r-5-5-5-5-5-|
A|------------------|------------------|------------------|
E|------------------|------------------|------------------|

    1   +   2   +      1   +   2   +      1   +   2   +   
e|--5-r-5-r-5-----5-|--r-5-r-5-5-r-5---|--3-r-3-r-3---3---|
B|--7-r-7-r-7-----7-|--r-7-r-7-7-r-7---|--5-r-5-r-5---5-3-|
G|--7-r-7-r-7-----7-|--r-7-r-7-7-r-7---|--5-r-5-r-5---5-4-|
D|------------------|------------------|----------------5-|
A|------------------|------------------|------------------|
E|------------------|------------------|------------------|

    1   +   2   +      1   +   2   +      1   +   2   +   
e|------------------|--2-r-2-r-2-r-2-2-|--r-2-r-2-2-2-2-2-|
B|--r-3-r-3-3-3-3-3-|--3-r-3-r-3-r-3-3-|--r-3-r-3-3-3-3-3-|
G|--r-4-r-4-4-4-4-4-|--2-r-2-r-2-r-2-2-|--r-2-r-2-2-2-2-2-|
D|--r-5-r-5-5-5-5-5-|------------------|------------------|
A|------------------|------------------|------------------|
E|------------------|------------------|------------------|

    1   +   2   +      1   +   2   +      1   +   2   +   
e|--3-r-3-r-3-r-3---|------------------|--5-r-5-r-5-----5-|
B|--5-r-5-r-5-r-5-3-|--r-3-r-3-3-3-3-3-|--7-r-7-r-7-----7-|
G|--5-r-5-r-5-r-5-4-|--r-4-r-4-4-4-4-4-|--7-r-7-r-7-----7-|
D|----------------5-|--r-5-r-5-5-5-5-5-|------------------|
A|------------------|------------------|------------------|
E|------------------|------------------|------------------|

    1   +   2   +      1   +   2   +      1   +   2   +   
e|--r-5-r-5-5-r-5---|--r---7---r---7---|--r---7---r---7---|
B|--r-7-r-7-7-r-7---|--r---8---r---8---|--r---8---r---8---|
G|--r-7-r-7-7-r-7---|--r---7---r---7---|--r---7---r---7---|
D|------------------|------------------|------------------|
A|------------------|------------------|------------------|
E|------------------|------------------|------------------|

    1   +   2   +      1   +   2   +      1   +   2   +   
e|--r---5---r---5---|--r---5---r---5---|--r---3---r---3---|
B|--r---7---r---7---|--r---5---r---5---|--r---5---r---5---|
G|--r---7---r---7---|--r---7---r---7---|--r---5---r---5---|
D|------------------|------------------|------------------|
A|------------------|------------------|------------------|
E|------------------|------------------|------------------|

    1   +   2   +      1   +   2   +      1   +   2   +   
e|--r---3---r---3---|--r---3---r---3---|--3---r-----------|
B|--r---5---r---5---|--r---5---r---5---|--5---r-----------|
G|--r---5---r---5---|--r---5---r---5---|--5---r-----------|
D|------------------|------------------|------------------|
A|------------------|------------------|------------------|
E|------------------|------------------|------------------|

    1   +   2   +      1   +   2   +      1   +   2   +   
e|--r---7---r---7---|--r---7---r---7---|--r---5---r---5---|
B|--r---8---r---8---|--r---8---r---8---|--r---7---r---7---|
G|--r---7---r---7---|--r---7---r---7---|--r---7---r---7---|
D|------------------|------------------|------------------|
A|------------------|------------------|------------------|
E|------------------|------------------|------------------|

    1   +   2   +      1   +   2   +      1   +   2   +   
e|--r---5---r---5---|--r---3---r---3---|--r---3---r---3---|
B|--r---5---r---5---|--r---5---r---5---|--r---5---r---5---|
G|--r---7---r---7---|--r---5---r---5---|--r---5---r---5---|
D|------------------|------------------|------------------|
A|------------------|------------------|------------------|
E|------------------|------------------|------------------|

    1   +   2   +      1   +   2   +      1   +   2   +   
e|--r---3---r---3---|--3---r-----------|------------------|
B|--r---5---r---5---|--5---r-----------|--3---r-----------|
G|--r---5---r---5---|--5---r-----------|--4---r-----------|
D|------------------|------------------|--5---r-----------|
A|------------------|------------------|------------------|
E|------------------|------------------|------------------|

    1   +   2   +      1   +   2   +      1   +   2   +   
e|--2---------------|-(2)--------------|--3---r-----------|
B|--3---------------|-(3)--------------|--5---r-----------|
G|--2---------------|-(2)--------------|--5---r-----------|
D|------------------|------------------|------------------|
A|------------------|------------------|------------------|
E|------------------|------------------|------------------|

    1   +   2   +      1   +   2   +      1   +   2   +   
e|------------------|--2---r-----------|------------------|
B|--3---r-----------|--3---r-----------|------------------|
G|--4---r-----------|--2---r-----------|------------------|
D|--5---r-----------|------------------|------------------|
A|------------------|------------------|------------------|
E|------------------|------------------|------------------|

    1   +   2   +      1   +   2   +      1   +   2   +   
e|------------------|------------------|------------------|
B|------3---r---3---|--r---5---r---5---|--r---7---r---7---|
G|------4---r---4---|--r---5---r---5---|--r---7---r---7---|
D|------5---r---5---|--r---5---r---5---|--r---7---r---7---|
A|------------------|------------------|------------------|
E|------------------|------------------|------------------|

    1   +   2   +      1   +   2   +      1   +   2   +   
e|------------------|------------------|------------------|
B|--r---7---r-7-7---|--r---0---r---0---|--r---5---r---5---|
G|--r---7---r-7-7---|--r---7---r---7---|--r---5---r---5---|
D|--r---7---r-7-7---|--r---5---r---5---|--r---5---r---5---|
A|------------------|------------------|------------------|
E|------------------|------------------|------------------|

    1   +   2   +      1   +   2   +      1   +   2   +   
e|------------------|------------------|------------------|
B|--r---7---r---7---|--r---7---r-7-7---|--r---0---r---0---|
G|--r---7---r---7---|--r---7---r-7-7---|--r---7---r---7---|
D|--r---7---r---7---|--r---7---r-7-7---|--r---5---r---5---|
A|------------------|------------------|------------------|
E|------------------|------------------|------------------|

    1   +   2   +      1   +   2   +      1   +   2   +   
e|------------------|------------------|------------------|
B|--r---5---r---5---|--r---7---r---7---|--r---7---r-7-7---|
G|--r---5---r---5---|--r---7---r---7---|--r---7---r-7-7---|
D|--r---5---r---5---|--r---7---r---7---|--r---7---r-7-7---|
A|------------------|------------------|------------------|
E|------------------|------------------|------------------|

    1   +   2   +      1   +   2   +      1   +   2   +   
e|------------------|------------------|------------------|
B|--r---0---r---0---|--r---5---r---5---|--r---7---r---7---|
G|--r---7---r---7---|--r---5---r---5---|--r---7---r---7---|
D|--r---5---r---5---|--r---5---r---5---|--r---7---r---7---|
A|------------------|------------------|------------------|
E|------------------|------------------|------------------|

    1   +   2   +      1   +   2   +      1   +   2   +   
e|------------------|------------------|------------------|
B|--r---7---r-7-7---|------------------|------------------|
G|--r---7---r-7-7---|------------------|------------------|
D|--r---7---r-7-7---|------------------|--------2---r-5---|
A|------------------|--------2---r-5---|--3---r-----------|
E|------------------|--3---r-----------|------------------|

    1   +   2   +      1   +   2   +      1   +   2   +   
e|------------------|------------------|------------------|
B|------------------|------------------|------------------|
G|------------------|------------------|------------------|
D|--------4---r-7---|--4---r-----------|------------------|
A|--5---r-----------|--------5---r-----|--------2---r-5---|
E|------------------|--------------5---|--3---r-----------|

    1   +   2   +      1   +   2   +      1   +   2   +   
e|------------------|------------------|------------------|
B|------------------|------------------|------------------|
G|------------------|------------------|------------------|
D|--------2---r-5---|------------------|------------------|
A|--3---r-----------|--5---r-----------|------------------|
E|------------------|------------------|------------------|

    1   +   2   +      1   +   2   +      1   +   2   +   
e|--3-r-3-r-3---3---|------------------|--2-r-2-r-2-r-2-2-|
B|--5-r-5-r-5---5-3-|--r-3-r-3-3-3-3-3-|--3-r-3-r-3-r-3-3-|
G|--5-r-5-r-5---5-4-|--r-4-r-4-4-4-4-4-|--2-r-2-r-2-r-2-2-|
D|----------------5-|--r-5-r-5-5-5-5-5-|------------------|
A|------------------|------------------|------------------|
E|------------------|------------------|------------------|

    1   +   2   +      1   +   2   +      1   +   2   +   
e|--r-2-r-2-2-2-2-2-|--3-r-3-r-3-r-3---|------------------|
B|--r-3-r-3-3-3-3-3-|--5-r-5-r-5-r-5-3-|--r-3-r-3-3-3-3-3-|
G|--r-2-r-2-2-2-2-2-|--5-r-5-r-5-r-5-4-|--r-4-r-4-4-4-4-4-|
D|------------------|----------------5-|--r-5-r-5-5-5-5-5-|
A|------------------|------------------|------------------|
E|------------------|------------------|------------------|

    1   +   2   +      1   +   2   +      1   +   2   +   
e|--5-r-5-r-5-----5-|--r-5-r-5-5-r-5---|--3-r-3-r-3---3---|
B|--7-r-7-r-7-----7-|--r-7-r-7-7-r-7---|--5-r-5-r-5---5-3-|
G|--7-r-7-r-7-----7-|--r-7-r-7-7-r-7---|--5-r-5-r-5---5-4-|
D|------------------|------------------|----------------5-|
A|------------------|------------------|------------------|
E|------------------|------------------|------------------|

    1   +   2   +      1   +   2   +      1   +   2   +   
e|------------------|--2-r-2-r-2-r-2-2-|--r-2-r-2-2-2-2-2-|
B|--r-3-r-3-3-3-3-3-|--3-r-3-r-3-r-3-3-|--r-3-r-3-3-3-3-3-|
G|--r-4-r-4-4-4-4-4-|--2-r-2-r-2-r-2-2-|--r-2-r-2-2-2-2-2-|
D|--r-5-r-5-5-5-5-5-|------------------|------------------|
A|------------------|------------------|------------------|
E|------------------|------------------|------------------|

Guitar 1:
    1   +   2   +      1   +   2   +      1   +   2   +   
e|--3-r-3-r-3-r-3---|------------------|--5-r-------------|
B|--5-r-5-r-5-r-5-3-|--r-3-r-3-3-3-3-3-|--7-r-------------|
G|--5-r-5-r-5-r-5-4-|--r-4-r-4-4-4-4-4-|--7-r-------------|
D|----------------5-|--r-5-r-5-5-5-5-5-|------------------|
A|------------------|------------------|------------------|
E|------------------|------------------|------------------|
                                                          |
Guitar 2:                                                 |
    1   +   2   +      1   +   2   +      1   +   2   +   |
e|------------------|------------------|------------------|
B|------------------|------------------|------------------|
G|------------------|------------------|------------------|
D|------------------|------------------|--r-----------0-2-|
A|------------------|------------------|------------------|
E|------------------|------------------|------------------|

Guitar 1:
    1   +   2   +      1   +   2   +      1   +   2   +   
e|------------------|------------------|------------------|
B|------------------|--r---3---r---3---|--r---5---r---5---|
G|------------------|--r---4---r---4---|--r---5---r---5---|
D|------------------|--r---5---r---5---|--r---5---r---5---|
A|------------------|------------------|------------------|
E|------------------|------------------|------------------|
                                                          |
Guitar 2:                                                 |
    1   +   2   +      1   +   2   +      1   +   2   +   |
e|----------------0-|------------------|------------------|
B|----------0-1-3---|--3---------------|--r---------------|
G|-----0-2----------|------------------|------------------|
D|--4---------------|------------------|------------------|
A|------------------|------------------|------------------|
E|------------------|------------------|------------------|

Guitar 1:
    1   +   2   +      1   +   2   +      1   +   2   +   
e|------------------|------------------|------------------|
B|--r---7---r---7---|--r---7---r-7-7---|--r---0---r---0---|
G|--r---7---r---7---|--r---7---r-7-7---|--r---7---r---7---|
D|--r---7---r---7---|--r---7---r-7-7---|--r---5---r---5---|
A|------------------|------------------|------------------|
E|------------------|------------------|------------------|
                                                          |
Guitar 2:                                                 |
    1   +   2   +      1   +   2   +      1   +   2   +   |
e|------0-2-3--0-2--|-----0----0-------|------------------|
B|--r-3-------------|--3----1-----1-1-1|--3---------------|
G|------------------|------------------|------------------|
D|------------------|------------------|------------------|
A|------------------|------------------|------------------|
E|------------------|------------------|------------------|

Guitar 1:
    1   +   2   +      1   +   2   +      1   +   2   +   
e|------------------|------------------|------------------|
B|--r---5---r---5---|--r---7---r---7---|--r---7---r-7-7---|
G|--r---5---r---5---|--r---7---r---7---|--r---7---r-7-7---|
D|--r---5---r---5---|--r---7---r---7---|--r---7---r-7-7---|
A|------------------|------------------|------------------|
E|------------------|------------------|------------------|
                                                          |
Guitar 2:                                                 |
    1   +   2   +      1   +   2   +      1   +   2   +   |
e|------------------|------3-5-7--8-10-|--8--7-5--7--8-10-|
B|--r---------------|--r-3-------------|------------------|
G|------------------|------------------|------------------|
D|------------------|------------------|------------------|
A|------------------|------------------|------------------|
E|------------------|------------------|------------------|

Guitar 1:
    1   +   2   +      1   +   2   +      1   +   2   +   
e|------------------|------------------|------------------|
B|--r---0---r---0---|--r---5---r---5---|--r---7---r---7---|
G|--r---7---r---7---|--r---5---r---5---|--r---7---r---7---|
D|--r---5---r---5---|--r---5---r---5---|--r---7---r---7---|
A|------------------|------------------|------------------|
E|------------------|------------------|------------------|
                                                          |
Guitar 2:                                                 |
    1   +   2   +      1   +   2   +      1   +   2   +   |
e|------------------|------------------|--r--8-8--8--1010-|
B|--8---------------|--r---------------|------------------|
G|------------------|------------------|------------------|
D|------------------|------------------|------------------|
A|------------------|------------------|------------------|
E|------------------|------------------|------------------|

Guitar 1:
    1   +   2   +      1   +   2   +      1   +   2   +   
e|------------------|------------------|------------------|
B|--r---7---r-7-7---|--r---0---r---0---|--r---5---r---5---|
G|--r---7---r-7-7---|--r---7---r---7---|--r---5---r---5---|
D|--r---7---r-7-7---|--r---5---r---5---|--r---5---r---5---|
A|------------------|------------------|------------------|
E|------------------|------------------|------------------|
                                                          |
Guitar 2:                                                 |
    1   +   2   +      1   +   2   +      1   +   2   +   |
e|--10-8-8--8--7-7--|-(7)-----------r--|--8-------12------|
B|------------------|------------------|------------------|
G|------------------|------------------|------------------|
D|------------------|------------------|------------------|
A|------------------|------------------|------------------|
E|------------------|------------------|------------------|

Guitar 1:
    1   +   2   +      1   +   2   +      1   +   2   +   
e|------------------|------------------|------------------|
B|--r---7---r---7---|--r---7---r-7-7---|------------------|
G|--r---7---r---7---|--r---7---r-7-7---|------------------|
D|--r---7---r---7---|--r---7---r-7-7---|------------------|
A|------------------|------------------|--------2---r-5---|
E|------------------|------------------|--3---r-----------|
                                                          |
Guitar 2:                                                 |
    1   +   2   +      1   +   2   +      1   +   2   +   |
e|--10--------------|------------------|------------------|
B|------------------|--10--------------|--r---------------|
G|------------------|------------------|------------------|
D|------------------|------------------|------------------|
A|------------------|------------------|------------------|
E|------------------|------------------|------------------|

    1   +   2   +      1   +   2   +      1   +   2   +   
e|------------------|------------------|------------------|
B|------------------|------------------|------------------|
G|------------------|------------------|------------------|
D|--------2---r-5---|------------------|------------------|
A|--3---r-----------|--5---r-----------|------------------|
E|------------------|------------------|------------------|

    1   +   2   +      1   +   2   +      1   +   2   +   
e|------------------|------------------|------------------|
B|--r---3---r---3---|--r---5---r---5---|--r---7---r---7---|
G|--r---4---r---4---|--r---5---r---5---|--r---7---r---7---|
D|--r---5---r---5---|--r---5---r---5---|--r---7---r---7---|
A|------------------|------------------|------------------|
E|------------------|------------------|------------------|

    1   +   2   +      1   +   2   +      1   +   2   +   
e|------------------|------------------|------------------|
B|--r---7---r-7-7---|--r---0---r---0---|--r---5---r---5---|
G|--r---7---r-7-7---|--r---7---r---7---|--r---5---r---5---|
D|--r---7---r-7-7---|--r---5---r---5---|--r---5---r---5---|
A|------------------|------------------|------------------|
E|------------------|------------------|------------------|

    1   +   2   +      1   +   2   +      1   +   2   +   
e|------------------|------------------|------------------|
B|--r---7---r---7---|--r---7---r-7-7---|--r---0---r---0---|
G|--r---7---r---7---|--r---7---r-7-7---|--r---7---r---7---|
D|--r---7---r---7---|--r---7---r-7-7---|--r---5---r---5---|
A|------------------|------------------|------------------|
E|------------------|------------------|------------------|

    1   +   2   +      1   +   2   +      1   +   2   +   
e|------------------|------------------|------------------|
B|--r---5---r---5---|--r---7---r---7---|--r---7---r-7-7---|
G|--r---5---r---5---|--r---7---r---7---|--r---7---r-7-7---|
D|--r---5---r---5---|--r---7---r---7---|--r---7---r-7-7---|
A|------------------|------------------|------------------|
E|------------------|------------------|------------------|

    1   +   2   +      1   +   2   +      1   +   2   +   
e|------------------|------------------|------------------|
B|--r---0---r---0---|--r---5---r---5---|--r---7---r---7---|
G|--r---7---r---7---|--r---5---r---5---|--r---7---r---7---|
D|--r---5---r---5---|--r---5---r---5---|--r---7---r---7---|
A|------------------|------------------|------------------|
E|------------------|------------------|------------------|

    1   +   2   +      1   +   2   +      1   +   2   +   
e|------------------|------------------|------------------|
B|--r---7---r---7---|--r---0---r---0---|--r---5---r---5---|
G|--r---7---r---7---|--r---7---r---7---|--r---5---r---5---|
D|--r---7---r---7---|--r---5---r---5---|--r---5---r---5---|
A|------------------|------------------|------------------|
E|------------------|------------------|------------------|

    1   +   2   +      1   +   2   +      1   +   2   +   
e|------------------|------------------|------------------|
B|--r---7---r---7---|--r---7---r-7-7---|--r---0---r---0---|
G|--r---7---r---7---|--r---7---r-7-7---|--r---7---r---7---|
D|--r---7---r---7---|--r---7---r-7-7---|--r---5---r---5---|
A|------------------|------------------|------------------|
E|------------------|------------------|------------------|

    1   +   2   +      1   +   2   +      1   +   2   +   
e|------------------|------------------|------------------|
B|--r---5---r---5---|--r---7---r---7---|--r---7---r-7-7---|
G|--r---5---r---5---|--r---7---r---7---|--r---7---r-7-7---|
D|--r---5---r---5---|--r---7---r---7---|--r---7---r-7-7---|
A|------------------|------------------|------------------|
E|------------------|------------------|------------------|

    1   +   2   +      1   +   2   +      1   +   2   +   
e|------------------|------------------|------------------|
B|--r---0---r---0---|--r---5---r---5---|--r---7---r---7---|
G|--r---7---r---7---|--r---5---r---5---|--r---7---r---7---|
D|--r---5---r---5---|--r---5---r---5---|--r---7---r---7---|
A|------------------|------------------|------------------|
E|------------------|------------------|------------------|

    1   +   2   +      1   +   2   +      1   +   2   +   
e|------------------|------------------|------------------|
B|--r---7---r-7-7---|--r---0---r---0---|--r---5---r---5---|
G|--r---7---r-7-7---|--r---7---r---7---|--r---5---r---5---|
D|--r---7---r-7-7---|--r---5---r---5---|--r---5---r---5---|
A|------------------|------------------|------------------|
E|------------------|------------------|------------------|

    1   +   2   +      1   +   2   +      1   +   2   +   
e|------------------|------------------|------------------|
B|--r---7---r---7---|--r---7---r---7---|--0---------------|
G|--r---7---r---7---|--r---7---r---7---|--7---------------|
D|--r---7---r---7---|--r---7---r---7---|--5---------------|
A|------------------|------------------|------------------|
E|------------------|------------------|------------------|

There’s a 7 measure rest here

    1   +   2   +      1   +   2   +      1   +   2   +   
e|----------------3-|--r-3-r-3-3-3-3-3-|--2-r-2-r-2-r-2-2-|
B|--3-r-3-r-3---3-5-|--r-5-r-3-3-3-3-3-|--3-r-3-r-3-r-3-3-|
G|--4-r-4-r-4---4-5-|--r-5-r-5-5-5-5-5-|--2-r-2-r-2-r-2-2-|
D|--5-r-5-r-5---5---|------------------|------------------|
A|------------------|------------------|------------------|
E|------------------|------------------|------------------|

    1   +   2   +      1   +   2   +      1   +   2   +   
e|--r-2-r-2-2-2-2-2-|----------------3-|--r-3-r-3-3-3-3-3-|
B|--r-3-r-3-3-3-3-3-|--3-r-3-r-3-r-3-5-|--r-5-r-5-5-5-5-5-|
G|--r-2-r-2-2-2-2-2-|--4-r-4-r-4-r-4-5-|--r-5-r-5-5-5-5-5-|
D|------------------|--5-r-5-r-5-r-5---|------------------|
A|------------------|------------------|------------------|
E|------------------|------------------|------------------|

    1   +   2   +      1   +   2   +      1   +   2   +   
e|--5---------------|-(5)--------------|--3-r-3-r-3---3---|
B|--7---------------|-(7)--------------|--5-r-5-r-5---5-3-|
G|--7---------------|-(7)--------------|--5-r-5-r-5---5-4-|
D|------------------|------------------|----------------5-|
A|------------------|------------------|------------------|
E|------------------|------------------|------------------|

    1   +   2   +      1   +   2   +      1   +   2   +   
e|------------------|--2-r-2-r-2-r-2-2-|--r-2-r-2-2-2-2-2-|
B|--r-3-r-3-3-3-3-3-|--3-r-3-r-3-r-3-3-|--r-3-r-3-3-3-3-3-|
G|--r-4-r-4-4-4-4-4-|--2-r-2-r-2-r-2-2-|--r-2-r-2-2-2-2-2-|
D|--r-5-r-5-5-5-5-5-|------------------|------------------|
A|------------------|------------------|------------------|
E|------------------|------------------|------------------|

    1   +   2   +      1   +   2   +      1   +   2   +   
e|--3-r-3-r-3-r-3---|------------------|--5-r-5-r-5-----5-|
B|--5-r-5-r-5-r-5-3-|--r-3-r-3-3-3-3-3-|--7-r-7-r-7-----7-|
G|--5-r-5-r-5-r-5-4-|--r-4-r-4-4-4-4-4-|--7-r-7-r-7-----7-|
D|----------------5-|--r-5-r-5-5-5-5-5-|------------------|
A|------------------|------------------|------------------|
E|------------------|------------------|------------------|

    1   +   2   +      1   +   2   +      1   +   2   +   
e|--r-5-r-5-5-r-5---|--3-r-3-r-3---3---|------------------|
B|--r-7-r-7-7-r-7---|--5-r-5-r-5---5-3-|--r-3-r-3-3-3-3-3-|
G|--r-7-r-7-7-r-7---|--5-r-5-r-5---5-4-|--r-4-r-4-4-4-4-4-|
D|------------------|----------------5-|--r-5-r-5-5-5-5-5-|
A|------------------|------------------|------------------|
E|------------------|------------------|------------------|

    1   +   2   +      1   +   2   +      1   +   2   +   
e|--2-r-2-r-2-r-2-2-|--r-2-r-2-2-2-2-2-|--3-r-3-r-3-r-3---|
B|--3-r-3-r-3-r-3-3-|--r-3-r-3-3-3-3-3-|--5-r-5-r-5-r-5-3-|
G|--2-r-2-r-2-r-2-2-|--r-2-r-2-2-2-2-2-|--5-r-5-r-5-r-5-4-|
D|------------------|------------------|----------------5-|
A|------------------|------------------|------------------|
E|------------------|------------------|------------------|

Guitar 1:
    1   +   2   +      1   +   2   +      1   +   2   +   
e|------------------|--5---------------|--5---------------|
B|--r-3-r-3-3-3-3-3-|--7---------------|--7---------------|
G|--r-4-r-4-4-4-4-4-|--7---------------|--7---------------|
D|--r-5-r-5-5-5-5-5-|------------------|------------------|
A|------------------|------------------|------------------|
E|------------------|------------------|------------------|
                                                          |
Guitar 2:                                                 |
    1   +   2   +      1   +   2   +      1   +   2   +   |
e|------------------|------------------|--5-----5---5-5---|
B|------------------|------------------|--7-----7---7-7---|
G|------------------|------------------|--7-----7---7-7---|
D|------------------|------------------|------------------|
A|------------------|------------------|------------------|
E|------------------|------------------|------------------|

    1   +   2   +      1   +   2   +      1   +   2   +   
e|--7---7-7---7-7---|--5---5-5---5-5---|--3-r---3-r---3-r-|
B|--8---8-8---8-8---|--7---7-7---7-7---|--5-r---5-r---5-r-|
G|--7---7-7---7-7---|--7---7-7---7-7---|--5-r---5-r---5-r-|
D|--5---5-5---5-5---|--7---7-7---7-7---|--5-r---5-r---5-r-|
A|------------------|------------------|------------------|
E|------------------|------------------|------------------|

    1   +   2   +      1   +   2   +      1   +   2   +   
e|--r---3-r-3---r---|--7---7-7---7-7---|--5---5-5---5-5---|
B|--r---5-r-5---r---|--8---8-8---8-8---|--7---7-7---7-7---|
G|--r---5-r-5---r---|--7---7-7---7-7---|--7---7-7---7-7---|
D|--r---5-r-5---r---|--5---5-5---5-5---|--7---7-7---7-7---|
A|------------------|------------------|------------------|
E|------------------|------------------|------------------|

    1   +   2   +      1   +   2   +      1   +   2   +   
e|--3-r---3-r---3-r-|--r---3-r-3---r---|--7---7-7---7-7---|
B|--5-r---5-r---5-r-|--r---5-r-5---r---|--8---8-8---8-8---|
G|--5-r---5-r---5-r-|--r---5-r-5---r---|--7---7-7---7-7---|
D|--5-r---5-r---5-r-|--r---5-r-5---r---|--5---5-5---5-5---|
A|------------------|------------------|------------------|
E|------------------|------------------|------------------|

    1   +   2   +      1   +   2   +      1   +   2   +   
e|--5---5-5---5-5---|--3-r---3-r---3-r-|--r---3-r-3---r---|
B|--7---7-7---7-7---|--5-r---5-r---5-r-|--r---5-r-5---r---|
G|--7---7-7---7-7---|--5-r---5-r---5-r-|--r---5-r-5---r---|
D|--7---7-7---7-7---|--5-r---5-r---5-r-|--r---5-r-5---r---|
A|------------------|------------------|------------------|
E|------------------|------------------|------------------|

    1   +   2   +      1   +   2   +      1   +   2   +   
e|--7---7-7---7-7---|--5---5-5---5-5---|--3-r---3-r---3-r-|
B|--8---8-8---8-8---|--7---7-7---7-7---|--5-r---5-r---5-r-|
G|--7---7-7---7-7---|--7---7-7---7-7---|--5-r---5-r---5-r-|
D|--5---5-5---5-5---|--7---7-7---7-7---|--5-r---5-r---5-r-|
A|------------------|------------------|------------------|
E|------------------|------------------|------------------|

    1   +   2   +      1   +   2   +      1   +   2   +   
e|--r---3-r-3---r---|--3-r---3-r---3-r-|--r---3-r-5---r---|
B|--r---5-r-5---r---|--5-r---5-r---5-r-|--r---5-r-7---r---|
G|--r---5-r-5---r---|--5-r---5-r---5-r-|--r---5-r-7---r---|
D|--r---5-r-5---r---|--5-r---5-r---5-r-|--r---5-r-7---r---|
A|------------------|------------------|------------------|
E|------------------|------------------|------------------|

    1   +   2   +      1   +   2   +      1   +   2   +   
e|--8-6---6---------|------------------|--------------1-3-|
B|------8---8-6-8-6-|----6-------------|------1-r-3-r-----|
G|------------------|--7---7-5-7-5-3---|--3-r-------------|
D|------------------|------------------|------------------|
A|------------------|------------------|------------------|
E|------------------|------------------|------------------|


| /  slide up
| \  slide down
| h  hammer-on
| p  pull-off
| ~  vibrato
| +  harmonic
| x  Mute note
| r  rest
| b  bend
===============================================================================

            
            
Suggest correction
Creating personal tab
Creating personal tab
You can edit any tab online and save it as your Personal.

You can edit, replace or remove any tab part or add personal notes – all changes will be seen only by you.

Personal tabs can be accessed anytime from any device, even offline.
Learn more »
Give kudos to tab author, rate the tab!
1 2 3 4 5
comments
print report bad tab
guest
You may want to rate the tab now too:
select rating
Wanna post a correction for this tab? Suggest correction