Oops, an error
Loading. Please wait.

El Nio Soldado tab

version 1
version 1

Whole song

by Ska-P
3,677 views 3 this week
no commentswrite comment
1 2 3 4 5
3 more votes to show rating
add to favorites
×
Save as Personal and add changes to this tab that will be seen only by you. Learn more ›
×
You can save this tab as Personal to edit and correct it or add notes. All changes will be seen only by you. Learn more »
launch autoscroll
font size
0
reset
how to read this tab
guitar tuner
edit
Autoscroll
slow
fast
+/-
esc
set tempo
stop
Difficulty
intermediate
hola a todos este es mi primer tab aki asi q aki lo tienen estoy seguro q esta 100% 
o  por lo menos un 90, lo he practicado varias veces y si sale bien.
dudas o correcciones a dennisa17@hotmail.com


bueno  los acordes que se utilizan son La(A), Re(D), Sol(G) y Si(B)
ok la intro va con distorcion y a la vez con efecto de coro.

    D  A  G
e)-----------|I
B)-----------|I
G)--7--------|I  esto va 4 veces
D)--7--7--5--|I
A)--5--7--5--|I
E)-----5--3--|I

Luego viene el verso q es con las mismos acordes pero lo tocan en corcheas

    D  A  G  G
e)--------------|I
B)--------------|I
G)--7-----------|I
D)--7--7--5--5--|I esto lo tocan 4 veces
A)--5--7--5--5--|I
E)-----5--3--3--|I

el pre-coro

    B  D  B  D  B  D  B  A
e)--------------------------|I
B)--------------------------|I
G)-----7-----7-----7--------|I
D)--9--7--9--7--9--7--9--7--|I DESPUES DE ESTO HAGAN UN PICKSLIDE Y ENTRA EL
A)--9--5--9--5--9--5--9--7--|I CORO
E)--7-----7-----7-----7--5--|I

Coro

e)-------------I-----------|I
B)-------------I-----------|I
G)--7----------I--7--------|I
D)--7--7--9--5-I--7--7--5--|I
A)--5--7--9--5-I--5--7--5--|I
E)-----5--7--3-I-----5--3--|I

en el verso en ritmo de ska token estos acordes

re(D) la(A)  sol(G)

tambien pueden usar los powerchord de la intro pero no va a sonar tan bien como los acordes

en la parte del saxo pueden utilizar el siiguiente punteo

            
            
Suggest correction
Creating personal tab
Creating personal tab
You can edit any tab online and save it as your Personal.

You can edit, replace or remove any tab part or add personal notes – all changes will be seen only by you.

Personal tabs can be accessed anytime from any device, even offline.
Learn more »
Give kudos to tab author, rate the tab!
1 2 3 4 5
comments
print report bad tab
guest
Wanna post a correction for this tab? Suggest correction