Oops, an error
Loading. Please wait.

Intifada tab

version 2
version 2

Whole song

Interactive

by Ska-P
1,783 views 1 this week
no commentswrite comment
1 2 3 4 5
3 more votes to show rating
add to favorites
×
Save as Personal and add changes to this tab that will be seen only by you. Learn more ›
×
You can save this tab as Personal to edit and correct it or add notes. All changes will be seen only by you. Learn more »
launch autoscroll
font size
0
reset
how to read this tab
guitar tuner
edit
Autoscroll
slow
fast
+/-
esc
set tempo
stop
Author
-------------------------------------------------------------------------------
                             Intifada - Ska P
-------------------------------------------------------------------------------
Tabbed by: ManiBass
Email: manuel.koehler@arcor.de

The tab is written for 2 guitars, but only in the intro both are playing.
So it's no problem to play it with 1 guitar.

Tuning: E,A,D,G,B,e

Intro

Guitar 1
Distored

e|----------------------------------|
B|----------------------------------|
G|---------------6-6---5-5~--5-5-5--|8x
D|-3-3---6-6-6---6-6---5-5~--5-5-5--|
A|-3-3---6-6-6---4-4---3-3~--3-3-3--|
E|-1-1---4-4-4----------------------|
   1 & 2 & 3 & 4 & 1 & 2 & 3 & 4 &

e|----------------------------------|
B|----------------------------------|
G|----------------------------------|4x
D|----------------------------------|
A|----------------------------------|
E|----------------------------------|
   1 & 2 & 3 & 4 & 1 & 2 & 3 & 4 &

Guitar 2
Distored

e|-------------------------------x--|
B|-------------------------------x--|
G|-------------------------------x--|
D|-------------------------------x--|
A|-------------------------------x--|
E|-------------------------------x--|
   1 & 2 & 3 & 4 & 1 & 2 & 3 & 4 &

e|-x--------------------------------|
B|-x--------------------------------|
G|-x--------------------------------|
D|-x--------------------------------|
A|-x--------------------------------|
E|-x--------------------------------|
   1 & 2 & 3 & 4 & 1 & 2 & 3 & 4 &

e|----------------------------------|
B|-8~-------------------------------|
G|-9~-------------------------------|
D|-10~------------------------------|
A|-10~------------------------------|
E|-8~-------------------------------|
   1 & 2 & 3 & 4 & 1 & 2 & 3 & 4 &

e|----------------------------------|
B|----------------------------------|
G|----------------------------------|5x
D|----------------------------------|
A|----------------------------------|
E|----------------------------------|
   1 & 2 & 3 & 4 & 1 & 2 & 3 & 4 &

Clean
High Treble

e|---8---8---8---8---11--11--11--11--9---9---9---9---8---8---8--8--8--|
B|---9---9---9---9---13--13--13--13--9---9---9---9---8---8---8--8--8--|
G|---10--10--10--10--13--13--13--13--10--10--10--10--9---9---9--9--9--|2x
D|---10--10--10--10--13--13--13--13--11--11--11--11--10--10--10-10-10-|
A|---8---8---8---8---11--11--11--11--11--11--11--11--10--10--10-10-10-|
E|-----------------------------------9---9---9---9---8---8---8--8--8--|
   1 & 2 & 3 & 4 & 1 & 2 & 3 & 4 & 1 & 2 & 3 & 4 & 1 & 2 & 3 &  4  &

Verse 1

Guitar 1

e|----------------------------------|
B|----------------------------------|
G|----------------------------------|8x
D|----------------------------------|
A|----------------------------------|
E|----------------------------------|
   1 & 2 & 3 & 4 & 1 & 2 & 3 & 4 &

Guitar 2
Clean
High Treble

e|---8---8---8---8---8---8---8---8---11--11--11--11--11--11--11--11--|
B|---9---9---9---9---9---9---9---9---13--13--13--13--13--13--13--13--|
G|---10--10--10--10--10--10--10--10--13--13--13--13--13--13--13--13--|
D|---10--10--10--10--10--10--10--10--13--13--13--13--13--13--13--13--|
A|---8---8---8---8---8---8---8---8---11--11--11--11--11--11--11--11--|
E|-------------------------------------------------------------------|
   1 & 2 & 3 & 4 & 1 & 2 & 3 & 4 & 1 & 2 & 3 & 4 & 1 & 2 & 3 & 4 &

e|---9---9---9---9---9---9---9--9--9----8---8---8---8---8---8---8--8--8--|
B|---9---9---9---9---9---9---9--9--9----8---8---8---8---8---8---8--8--8--|
G|---10--10--10--10--10--10--10-10-10---9---9---9---9---9---9---9--9--9--|
D|---11--11--11--11--11--11--11-11-11---10--10--10--10--10--10--10-10-10-|
A|---11--11--11--11--11--11--11-11-11---10--10--10--10--10--10--10-10-10-|
E|---9---9---9---9---9---9---9--9--9----8---8---8---8---8---8---8--8--8--|
   1 & 2 & 3 & 4 & 1 & 2 & 3 &  4  &  1 & 2 & 3 & 4 & 1 & 2 & 3 &  4  &

e|---8---8---8---8---8---8---8---8---11--11--11--11--11--11--11--11--|
B|---9---9---9---9---9---9---9---9---13--13--13--13--13--13--13--13--|
G|---10--10--10--10--10--10--10--10--13--13--13--13--13--13--13--13--|
D|---10--10--10--10--10--10--10--10--13--13--13--13--13--13--13--13--|
A|---8---8---8---8---8---8---8---8---11--11--11--11--11--11--11--11--|
E|-------------------------------------------------------------------|
   1 & 2 & 3 & 4 & 1 & 2 & 3 & 4 & 1 & 2 & 3 & 4 & 1 & 2 & 3 & 4 &

e|---9---9---9---9---9---9---9--9--9----8---8---8---8---8---8---8--8--8--|
B|---9---9---9---9---9---9---9--9--9----8---8---8---8---8---8---8--8--8--|
G|---10--10--10--10--10--10--10-10-10---9---9---9---9---9---9---9--9--9--|
D|---11--11--11--11--11--11--11-11-11---10--10--10--10--10--10--10-10-10-|
A|---11--11--11--11--11--11--11-11-11---10--10--10--10--10--10--10-10-10-|
E|---9---9---9---9---9---9---9--9--9----8---8---8---8---8---8---8--8--8--|
   1 & 2 & 3 & 4 & 1 & 2 & 3 &  4  &  1 & 2 & 3 & 4 & 1 & 2 & 3 &  4  &

Chorus 1

Guitar 1
Distored

e|----------------------------------|
B|----------------------------------|
G|-----------------6-6---5~--5-5-5--|4x
D|-3---3---6---6---6-6---5~--5-5-5--|
A|-3---3---6---6---4-4---3~--3-3-3--|
E|-1---1---4---4--------------------|
   1 & 2 & 3 & 4 & 1 & 2 & 3 & 4 &

e|----------------------------------|
B|----------------------------------|
G|----------------------------------|4x
D|----------------------------------|
A|----------------------------------|
E|----------------------------------|
   1 & 2 & 3 & 4 & 1 & 2 & 3 & 4 &

Guitar 2

e|----------------------------------|
B|----------------------------------|
G|----------------------------------|4x
D|----------------------------------|
A|----------------------------------|
E|----------------------------------|
   1 & 2 & 3 & 4 & 1 & 2 & 3 & 4 &

Clean
High Treble

e|---8---8---8---8---11--11--11--11--9---9---9---9---8---8---8--8--8--|
B|---9---9---9---9---13--13--13--13--9---9---9---9---8---8---8--8--8--|
G|---10--10--10--10--13--13--13--13--10--10--10--10--9---9---9--9--9--|2x
D|---10--10--10--10--13--13--13--13--11--11--11--11--10--10--10-10-10-|
A|---8---8---8---8---11--11--11--11--11--11--11--11--10--10--10-10-10-|
E|-----------------------------------9---9---9---9---8---8---8--8--8--|
   1 & 2 & 3 & 4 & 1 & 2 & 3 & 4 & 1 & 2 & 3 & 4 & 1 & 2 & 3 &  4  &

Verse 2

Guitar 1

e|----------------------------------|
B|----------------------------------|
G|----------------------------------|8x
D|----------------------------------|
A|----------------------------------|
E|----------------------------------|
   1 & 2 & 3 & 4 & 1 & 2 & 3 & 4 &

Guitar 2
Clean
High Treble

e|---8---8---8---8---8---8---8---8---11--11--11--11--11--11--11--11--|
B|---9---9---9---9---9---9---9---9---13--13--13--13--13--13--13--13--|
G|---10--10--10--10--10--10--10--10--13--13--13--13--13--13--13--13--|
D|---10--10--10--10--10--10--10--10--13--13--13--13--13--13--13--13--|
A|---8---8---8---8---8---8---8---8---11--11--11--11--11--11--11--11--|
E|-------------------------------------------------------------------|
   1 & 2 & 3 & 4 & 1 & 2 & 3 & 4 & 1 & 2 & 3 & 4 & 1 & 2 & 3 & 4 &

e|---9---9---9---9---9---9---9--9--9----8---8---8---8---8---8---8--8--8--|
B|---9---9---9---9---9---9---9--9--9----8---8---8---8---8---8---8--8--8--|
G|---10--10--10--10--10--10--10-10-10---9---9---9---9---9---9---9--9--9--|
D|---11--11--11--11--11--11--11-11-11---10--10--10--10--10--10--10-10-10-|
A|---11--11--11--11--11--11--11-11-11---10--10--10--10--10--10--10-10-10-|
E|---9---9---9---9---9---9---9--9--9----8---8---8---8---8---8---8--8--8--|
   1 & 2 & 3 & 4 & 1 & 2 & 3 &  4  &  1 & 2 & 3 & 4 & 1 & 2 & 3 &  4  &

e|---8---8---8---8---8---8---8---8---11--11--11--11--11--11--11--11--|
B|---9---9---9---9---9---9---9---9---13--13--13--13--13--13--13--13--|
G|---10--10--10--10--10--10--10--10--13--13--13--13--13--13--13--13--|
D|---10--10--10--10--10--10--10--10--13--13--13--13--13--13--13--13--|
A|---8---8---8---8---8---8---8---8---11--11--11--11--11--11--11--11--|
E|-------------------------------------------------------------------|
   1 & 2 & 3 & 4 & 1 & 2 & 3 & 4 & 1 & 2 & 3 & 4 & 1 & 2 & 3 & 4 &

e|---9---9---9---9---9---9---9--9--9----8---8---8---8---8---8---8--8--8--|
B|---9---9---9---9---9---9---9--9--9----8---8---8---8---8---8---8--8--8--|
G|---10--10--10--10--10--10--10-10-10---9---9---9---9---9---9---9--9--9--|
D|---11--11--11--11--11--11--11-11-11---10--10--10--10--10--10--10-10-10-|
A|---11--11--11--11--11--11--11-11-11---10--10--10--10--10--10--10-10-10-|
E|---9---9---9---9---9---9---9--9--9----8---8---8---8---8---8---8--8--8--|
   1 & 2 & 3 & 4 & 1 & 2 & 3 &  4  &  1 & 2 & 3 & 4 & 1 & 2 & 3 &  4  &

Chorus 2

Guitar 1
Distored

e|----------------------------------|
B|----------------------------------|
G|-----------------6-6---5~--5-5-5--|4x
D|-3---3---6---6---6-6---5~--5-5-5--|
A|-3---3---6---6---4-4---3~--3-3-3--|
E|-1---1---4---4--------------------|
   1 & 2 & 3 & 4 & 1 & 2 & 3 & 4 &

e|-----------------------------------------------------------------|
B|-----------------------------------------------------------------|
G|-3~------------------------------5~------------------------------|
D|-3~------------------------------5~------------------------------|
A|-1~------------------------------3~------------------------------|
E|-----------------------------------------------------------------|
   1 & 2 & 3 & 4 & 1 & 2 & 3 & 4 & 1 & 2 & 3 & 4 & 1 & 2 & 3 & 4 &

e|-----------------------------------------------------------------|
B|-----------------------------------------------------------------|
G|-----------------------------------------------------------------|
D|-3~--------------------------5---6~------------------------------|
A|-3~--------------------------5---6~------------------------------|
E|-1~--------------------------3---4~------------------------------|
   1 & 2 & 3 & 4 & 1 & 2 & 3 & 4 & 1 & 2 & 3 & 4 & 1 & 2 & 3 & 4 &

e|-----------------------------------------------------------------|
B|-----------------------------------------------------------------|
G|-8~------------------------------6~--------------6-6-6---6-6-6---|
D|-8~------------------------------6~--------------6-6-6---6-6-6---|
A|-6~------------------------------4~--------------4-4-4---4-4-4---|
E|-----------------------------------------------------------------|
   1 & 2 & 3 & 4 & 1 & 2 & 3 & 4 & 1 & 2 & 3 & 4 & 1 & 2 & 3 & 4 &
                                                   . .     . .

e|-----------------------------------------------------------------|
B|-----------------------------------------------------------------|
G|-----------------------------------------------------------------|
D|-3~--------------------------5---6~------------------------------|
A|-3~--------------------------5---6~------------------------------|
E|-1~--------------------------3---4~------------------------------|
   1 & 2 & 3 & 4 & 1 & 2 & 3 & 4 & 1 & 2 & 3 & 4 & 1 & 2 & 3 & 4 &

e|-----------------------------------------------------------------|
B|-----------------------------------------------------------------|
G|-8~------------------------------6~------------------------------|
D|-8~------------------------------6~------------------------------|
A|-6~------------------------------4~------------------------------|
E|-----------------------------------------------------------------|
   1 & 2 & 3 & 4 & 1 & 2 & 3 & 4 & 1 & 2 & 3 & 4 & 1 & 2 & 3 & 4 &

e|-----------------------------------------------------------------|
B|-----------------------------------------------------------------|
G|-------------------------6-------5~------------------------------|2x
D|-3~--------------6-------6-------5~------------------------------|
A|-3~--------------6-------4-------3~------------------------------|
E|-1~--------------4-----------------------------------------------|
   1 & 2 & 3 & 4 & 1 & 2 & 3 & 4 & 1 & 2 & 3 & 4 & 1 & 2 & 3 & 4 &

e|----------------------------------|
B|----------------------------------|
G|----------------------------------|4x
D|----------------------------------|
A|----------------------------------|
E|----------------------------------|
   1 & 2 & 3 & 4 & 1 & 2 & 3 & 4 &

Guitar 2

e|----------------------------------|
B|----------------------------------|
G|----------------------------------|18x
D|----------------------------------|
A|----------------------------------|
E|----------------------------------|
   1 & 2 & 3 & 4 & 1 & 2 & 3 & 4 &

Clean
High Treble

e|---8---8---8---8---11--11--11--11--9---9---9---9---8---8---8--8--8--|
B|---9---9---9---9---13--13--13--13--9---9---9---9---8---8---8--8--8--|
G|---10--10--10--10--13--13--13--13--10--10--10--10--9---9---9--9--9--|2x
D|---10--10--10--10--13--13--13--13--11--11--11--11--10--10--10-10-10-|
A|---8---8---8---8---11--11--11--11--11--11--11--11--10--10--10-10-10-|
E|-----------------------------------9---9---9---9---8---8---8--8--8--|
   1 & 2 & 3 & 4 & 1 & 2 & 3 & 4 & 1 & 2 & 3 & 4 & 1 & 2 & 3 &  4  &

Verse 3

Guitar 1

e|----------------------------------|
B|----------------------------------|
G|----------------------------------|8x
D|----------------------------------|
A|----------------------------------|
E|----------------------------------|
   1 & 2 & 3 & 4 & 1 & 2 & 3 & 4 &

Guitar 2
Clean
High Treble

e|---8---8---8---8---8---8---8---8---11--11--11--11--11--11--11--11--|
B|---9---9---9---9---9---9---9---9---13--13--13--13--13--13--13--13--|
G|---10--10--10--10--10--10--10--10--13--13--13--13--13--13--13--13--|
D|---10--10--10--10--10--10--10--10--13--13--13--13--13--13--13--13--|
A|---8---8---8---8---8---8---8---8---11--11--11--11--11--11--11--11--|
E|-------------------------------------------------------------------|
   1 & 2 & 3 & 4 & 1 & 2 & 3 & 4 & 1 & 2 & 3 & 4 & 1 & 2 & 3 & 4 &

e|---9---9---9---9---9---9---9--9--9--8---------------8-----8-----8--|
B|---9---9---9---9---9---9---9--9--9--8---------------8-----8-----8--|
G|---10--10--10--10--10--10--10-10-10-9---------------9-----9-----9--|
D|---11--11--11--11--11--11--11-11-11-10--------------10----10----10-|
A|---11--11--11--11--11--11--11-11-11-10--------------10----10----10-|
E|---9---9---9---9---9---9---9--9--9--8---------------8-----8-----8--|
   1 & 2 & 3 & 4 & 1 & 2 & 3 &  4  &  1 & 2 & 3 & 4 & 1 & 2 & 3 & 4 &

e|---8---8---8---8---8---8---8---8---11--11--11--11--11--11--11--11--|
B|---9---9---9---9---9---9---9---9---13--13--13--13--13--13--13--13--|
G|---10--10--10--10--10--10--10--10--13--13--13--13--13--13--13--13--|
D|---10--10--10--10--10--10--10--10--13--13--13--13--13--13--13--13--|
A|---8---8---8---8---8---8---8---8---11--11--11--11--11--11--11--11--|
E|-------------------------------------------------------------------|
   1 & 2 & 3 & 4 & 1 & 2 & 3 & 4 & 1 & 2 & 3 & 4 & 1 & 2 & 3 & 4 &

e|---9---9---9---9---9---9---9--9--9----8---8---8---8---8---8---8--8--8--|
B|---9---9---9---9---9---9---9--9--9----8---8---8---8---8---8---8--8--8--|
G|---10--10--10--10--10--10--10-10-10---9---9---9---9---9---9---9--9--9--|
D|---11--11--11--11--11--11--11-11-11---10--10--10--10--10--10--10-10-10-|
A|---11--11--11--11--11--11--11-11-11---10--10--10--10--10--10--10-10-10-|
E|---9---9---9---9---9---9---9--9--9----8---8---8---8---8---8---8--8--8--|
   1 & 2 & 3 & 4 & 1 & 2 & 3 &  4  &  1 & 2 & 3 & 4 & 1 & 2 & 3 &  4  &

Chorus 3

Guitar 1
Distored

e|----------------------------------|
B|----------------------------------|
G|-----------------6-6---5~--5-5-5--|4x
D|-3---3---6---6---6-6---5~--5-5-5--|
A|-3---3---6---6---4-4---3~--3-3-3--|
E|-1---1---4---4--------------------|
   1 & 2 & 3 & 4 & 1 & 2 & 3 & 4 &

e|-----------------------------------------------------------------|
B|-----------------------------------------------------------------|
G|-3~------------------------------5~------------------------------|
D|-3~------------------------------5~------------------------------|
A|-1~------------------------------3~------------------------------|
E|-----------------------------------------------------------------|
   1 & 2 & 3 & 4 & 1 & 2 & 3 & 4 & 1 & 2 & 3 & 4 & 1 & 2 & 3 & 4 &

e|-----------------------------------------------------------------|
B|-----------------------------------------------------------------|
G|-----------------------------------------------------------------|
D|-3~--------------------------5---6~------------------------------|
A|-3~--------------------------5---6~------------------------------|
E|-1~--------------------------3---4~------------------------------|
   1 & 2 & 3 & 4 & 1 & 2 & 3 & 4 & 1 & 2 & 3 & 4 & 1 & 2 & 3 & 4 &

e|-----------------------------------------------------------------|
B|-----------------------------------------------------------------|
G|-8~------------------------------6~--------------6-6-6---6-6-6---|
D|-8~------------------------------6~--------------6-6-6---6-6-6---|
A|-6~------------------------------4~--------------4-4-4---4-4-4---|
E|-----------------------------------------------------------------|
   1 & 2 & 3 & 4 & 1 & 2 & 3 & 4 & 1 & 2 & 3 & 4 & 1 & 2 & 3 & 4 &
                                                   . .     . .

e|-----------------------------------------------------------------|
B|-----------------------------------------------------------------|
G|-----------------------------------------------------------------|
D|-3~--------------------------5---6~------------------------------|
A|-3~--------------------------5---6~------------------------------|
E|-1~--------------------------3---4~------------------------------|
   1 & 2 & 3 & 4 & 1 & 2 & 3 & 4 & 1 & 2 & 3 & 4 & 1 & 2 & 3 & 4 &

e|-----------------------------------------------------------------|
B|-----------------------------------------------------------------|
G|-8~------------------------------6~------------------------------|
D|-8~------------------------------6~------------------------------|
A|-6~------------------------------4~------------------------------|
E|-----------------------------------------------------------------|
   1 & 2 & 3 & 4 & 1 & 2 & 3 & 4 & 1 & 2 & 3 & 4 & 1 & 2 & 3 & 4 &

e|-----------------------------------------------------------------|
B|-----------------------------------------------------------------|
G|-----------------------------------------------------------------|
D|-3~--------------------------5---6~------------------------------|
A|-3~--------------------------5---6~------------------------------|
E|-1~--------------------------3---4~------------------------------|
   1 & 2 & 3 & 4 & 1 & 2 & 3 & 4 & 1 & 2 & 3 & 4 & 1 & 2 & 3 & 4 &

e|-----------------------------------------------------------------|
B|-----------------------------------------------------------------|
G|-8~------------------------------6~--------------6-6-6---6-6-6---|
D|-8~------------------------------6~--------------6-6-6---6-6-6---|
A|-6~------------------------------4~--------------4-4-4---4-4-4---|
E|-----------------------------------------------------------------|
   1 & 2 & 3 & 4 & 1 & 2 & 3 & 4 & 1 & 2 & 3 & 4 & 1 & 2 & 3 & 4 &
                                                   . .     . .

e|-----------------------------------------------------------------|
B|-----------------------------------------------------------------|
G|-----------------------------------------------------------------|
D|-3~--------------------------5---6~------------------------------|
A|-3~--------------------------5---6~------------------------------|
E|-1~--------------------------3---4~------------------------------|
   1 & 2 & 3 & 4 & 1 & 2 & 3 & 4 & 1 & 2 & 3 & 4 & 1 & 2 & 3 & 4 &

e|-----------------------------------------------------------------|
B|-----------------------------------------------------------------|
G|-8~------------------------------6~------------------------------|
D|-8~------------------------------6~------------------------------|
A|-6~------------------------------4~------------------------------|
E|-----------------------------------------------------------------|
   1 & 2 & 3 & 4 & 1 & 2 & 3 & 4 & 1 & 2 & 3 & 4 & 1 & 2 & 3 & 4 &

e|-----------------------------------------------------------------|
B|-----------------------------------------------------------------|
G|-------------------------8-------7~------------------------------|4x
D|-5~--------------8-------8-------7~------------------------------|
A|-5~--------------8-------6-------5~------------------------------|
E|-3~--------------6-----------------------------------------------|
   1 & 2 & 3 & 4 & 1 & 2 & 3 & 4 & 1 & 2 & 3 & 4 & 1 & 2 & 3 & 4 &

e|-----------------|
B|-----------------|
G|-----------------|
D|-5--\------------|
A|-5--\------------|
E|-3--\------------|
   1 & 2 & 3 & 4 &

Guitar 2

e|----------------------------------|
B|----------------------------------|
G|----------------------------------|20x
D|----------------------------------|
A|----------------------------------|
E|----------------------------------|
   1 & 2 & 3 & 4 & 1 & 2 & 3 & 4 &


| \  slide down
| ~  hold
| x  Mute note
| .  Palm mute
===============================================================================

            
            
Suggest correction
Creating personal tab
Creating personal tab
You can edit any tab online and save it as your Personal.

You can edit, replace or remove any tab part or add personal notes – all changes will be seen only by you.

Personal tabs can be accessed anytime from any device, even offline.
Learn more »
Give kudos to tab author, rate the tab!
1 2 3 4 5
comments
print report bad tab
guest
You may want to rate the tab now too:
select rating
Wanna post a correction for this tab? Suggest correction