Oops, an error
Loading. Please wait.

Romero El Madero bass

version 1
version 1

Whole song

Interactive

by Ska-P
4,128 views 3 this week
no commentswrite comment
1 2 3 4 5
3 more votes to show rating
add to favorites
×
Save as Personal and add changes to this tab that will be seen only by you. Learn more ›
×
You can save this tab as Personal to edit and correct it or add notes. All changes will be seen only by you. Learn more »
launch autoscroll
font size
0
reset
guitar tuner
edit
Autoscroll
slow
fast
+/-
esc
set tempo
stop
Author
Ska-P - 'Romero Madero'
======================

Off the album 'Vals Del Obrero', track #5

Tabbed by The Bass Playing Sheep (sheep611@gmail.com)

Basics:

*    - let ring
/ \  - slide up or down
h p  - hammer-on and pull-off
x    - dead note

Standard tuning, and fingerpick it...
I've included the guitar chords above the bar agin, and it's all major chords it seems...


4 bar drum intro, then guitar and bass starts.

Intro:

   D          G          D          A
G|-----------------4-7-4-----------------------|
D|------4-7-4-5--5------------4-7-4------------|
A|-5--5------------------5--5------------4h5h7-|
E|----------------------------------5--5-------|

   D          G          N.C.
G|-----------------4-7-4-7-5-4---4-----------|
D|------4-7-4-5--5-------------7---7-5-4-----|
A|-5--5----------------------------------7-5-|
E|-------------------------------------------|
   D       A     D   N.C.
G|-------------------7-5-4---4-----------|
D|-------------------------7---7-5-4-----|
A|-5----5--------5-------------------7-5-|
E|---------5--5--------------------------|


Pre-Verse:

   D      G    D      A    D      G    A      D
G|----------------------------------------------|
D|----------------------------------------------|
A|-5-555-------5-555-------5-555-------------45-|
E|--------3-33--------5-55--------3-33-5-5-5----|


Verse:
   D    G         D    A     D    G    A        D
G|----------------------------------------------------|
D|----------------------------------------------------|
A|-5-x5-----2h3h5-5-x5-----4-5-x5-----------3-4-5-----|
E|------3-3------------5-x5-------3-x3-5--5-------5\0-|

   D    G         D    A     D    G    A        D
G|------------------------------------------------|
D|------------------------------------------------|
A|-5-x5-----2h3h5-5-x5-----4-5-x5-----------3-4-5-|
E|------3-3------------5-x5-------3-x3-5--5-------|


Pre-Verse x1

Verse x1

Chorus 1:

   C   G    D   C   G   D
G|----------------------------|
D|----------------------------|   Slow slide down from D to G
A|-33-------5---33------------|
E|-----33-----------33---10/3-|

   C   G    D   C   G   D
G|--------------------------------------|
D|--------------------------3-4-5-6-7/0-|
A|-33-------5---33------5-5-------------|
E|-----33-----------33------------------|


Pre-verse x2

verse x1


Chorus 2:

   C   G    D   C   G   D
G|----------------------------|
D|----------------------------|   Slow slide down from D to G
A|-33-------5---33------------|
E|-----33-----------33---10/3-|

   C   G    D   C   G   D
G|----------------------------------------4-5-6-|
D|--------------------------3-4-5-6-7-7-8-------|
A|-33-------5---33------5-5---------------------|
E|-----33-----------33--------------------------|


Post-verse:

   D      G    D      A    D      G    A     D
G|----------------------------------------------------|
D|----------------------------------------------------|
A|-5-5555-------5-5555-------5-5555------------45-----|
E|---------3-33---------5-55---------3-33-5--5----10/5|

   D      G    D      A    D      G    A     D
G|------------------------------------------------|
D|------------------------------------------------|
A|-5-5555-------5-5555-------5-5555------------45-|
E|---------3-33---------5-55---------3-33-5--5----|


Bridge/ interlude drum and bass thing:

                               x2                                         x2
G|-7-7-54-----457-7-7-54--------|          G|------------------------------|
D|-------7-457----------7-457-7-|    OR    D|------------------------------|
A|------------------------------|          A|-5-5-32-----235-5-5-32--------|
E|------------------------------|          E|-------5-235----------5-235-5-|


Intro x1

random riff:    

   E       A     E      A     E      A    B
G|----------------------------------------------------|
D|----------------------------------------------------|   
A|-7-7777--------7-7777-------7-7777---------------67-|
E|---------5-55---------5-55---------5-55-7-77777-----|


pre-verse x1

Outro:
   D    G    D    A    D    G    A         E    A    E    B    E    A    B
G|--------|---------------------------------------|---------------------------------------|
D|REST----|---------------------------------------|-2222------2222------2222-----------12-|
A|-----45-|-5555------5555------5555-----------45-|------0000------2222------0000-22222---|
E|--------|------3333------5555------3333-55555---|---------------------------------------|

   F    Bb   F    C    F    Bb   C         C
G|---------------------------------------|-----------------|
D|-3333------3333------3333-----------23-|------23------23-|
A|------1111------3333------1111-3333----|-3333----3333----|
E|---------------------------------------|-----------------|

Thats it! Have fun


            
            
Suggest correction
Creating personal tab
Creating personal tab
You can edit any tab online and save it as your Personal.

You can edit, replace or remove any tab part or add personal notes – all changes will be seen only by you.

Personal tabs can be accessed anytime from any device, even offline.
Learn more »
Give kudos to tab author, rate the tab!
1 2 3 4 5
comments
print report bad tab
guest
You may want to rate the tab now too:
select rating
Wanna post a correction for this tab? Suggest correction