Oops, an error
Loading. Please wait.

Got On My Skateboard bass

by Skegss
271 views 15 this week
no commentswrite comment
1 2 3 4 5
3 more votes to show rating
add to favorites
×
Save as Personal and add changes to this tab that will be seen only by you. Learn more ›
×
You can save this tab as Personal to edit and correct it or add notes. All changes will be seen only by you. Learn more »
launch autoscroll
font size
0
reset
guitar tuner
edit
Autoscroll
slow
fast
+/-
esc
set tempo
stop
Artist: Skegss
Song: Got On My Skateboard
Tuning - Standard
tabbed by electricbunny

[Intro]
G|--------------------------------|--------------------------------|
D|--------------------------------|--------------------------------|
A|--------------------------------|--------------------------------|
E|3-------3---3---3---3-------3---|----3-------3---3---3---3---3---|
 
G|--------------------------------|--------------------------------|
D|--------------------------------|--------------------------------|
A|--------------------------------|--------------------------------|
E|3---3-------3-------3---3---3---|3---3---3---3---3---3-----------|
 
G|--------------------------------|--------------------------------|
D|--------------------------------|--------------------------------|
A|--------------------------------|--------------------------------|
E|0---0-------0-------0---0---0---|0---0---0---0---0---0---0-------|
 
G|--------------------------------|--------------------------------|
D|0---0-------0-------0---0---0---|----0---0---0---0---0---0---0---|
A|--------------------------------|--------------------------------|
E|--------------------------------|--------------------------------|
 
[Verse]
G|--------------------------------|--------------------------------|
D|--------------------------------|--------------------------------|
A|--------------------------------|--------------------------------|
E|3---3---3-------3---3---3---3---|----3---3-----------3---3---3---|
 
G|--------------------------------|--------------------------------|
D|--------------------------------|--------------------------------|
A|--------------------------------|--------------------------------|
E|3---3-----------3-------3-------|3-----------3---3---3-----------|
 
G|--------------------------------|--------------------------------|
D|2---2---2---2-------2-------2---|----2-------2-------2---2-------|
A|--------------------------------|--------------------------------|
E|--------------------------------|--------------------------------|
 
G|--------------------------------|--------------------------------|
D|0---0---0-------0---0-----------|0-------0-------0---0-----------|
A|--------------------------------|--------------------------------|
E|--------------------------------|--------------------------------|
 
G|--------------------------------|--------------------------------|
D|--------------------------------|--------------------------------|
A|--------------------------------|--------------------------------|
E|3---3---3-------3---3---3---3---|----3---3-----------3---3---3---|
 
G|--------------------------------|--------------------------------|
D|--------------------------------|--------------------------------|
A|--------------------------------|--------------------------------|
E|3---3-----------3-------3-------|3-----------3---3---3-----------|
 
G|--------------------------------|--------------------------------|
D|2---2---2---2-------2-------2---|----2-------2-------2---2-------|
A|--------------------------------|--------------------------------|
E|--------------------------------|--------------------------------|
 
G|--------------------------------|--------------------------------|
D|0---0---0-------0---0-----------|0-------0-------0---0-----------|
A|--------------------------------|--------------------------------|
E|--------------------------------|--------------------------------|
 
G|--------------------------------|--------------------------------|
D|--------------------------------|--------------------------------|
A|--------------------------------|--------------------------------|
E|3---3---3-------3---3---3---3---|----3---3-----------3---3---3---|
 
G|--------------------------------|--------------------------------|
D|--------------------------------|--------------------------------|
A|--------------------------------|--------------------------------|
E|3---3-----------3-------3-------|3-----------3---3---3-----------|
 
G|--------------------------------|--------------------------------|
D|2---2---2---2-------2-------2---|----2-------2-------2---2-------|
A|--------------------------------|--------------------------------|
E|--------------------------------|--------------------------------|
 
G|--------------------------------|--------------------------------|
D|0---0---0-------0---0-----------|0-------0-------0---0-----------|
A|--------------------------------|--------------------------------|
E|--------------------------------|--------------------------------|
 
G|--------------------------------|--------------------------------|
D|--------------------------------|--------------------------------|
A|--------------------------------|--------------------------------|
E|--------3---3---3-------3---3---|3---3-------3---3-----------3---|
 
G|--------------------------------|--------------------------------|
D|--------------------------------|--------------------------------|
A|--------------------------------|--------------------------------|
E|3---3---3---3-----------3-------|3-------3-----------3---3---3---|
 
G|--------------------------------|--------------------------------|
D|--------2---2---2---2-------2---|----2-------2-------2-------2---|
A|--------------------------------|--------------------------------|
E|--------------------------------|--------------------------------|
 
G|--------------------------------|--------------------------------|
D|2-------0---0---0-------0---0---|--------0-------0-------0---0---|
A|--------------------------------|--------------------------------|
E|--------------------------------|--------------------------------|
 
G|--------------------------------|--------------------------------|
D|--------------------------------|--------------------------------|
A|3-------3-------3---3-------3---|----3---3-------3---3-----------|
E|--------------------------------|--------------------------------|
 
[Chorus] 
G|--------------------------------|--------------------------------|
D|--------------------------------|--------------------------------|
A|--------------------------------|2-----------2---2---2-----------|
E|3---3-----------3---3-----------|--------------------------------|
 
G|--------------------------------|--------------------------------|
D|--------------------------------|--------------------------------|
A|3-------3-------3---3-------3---|----------------3---3-----------|
E|--------------------------------|--------------------------------|
 
G|--------------------------------|--------------------------------|
D|--------------------------------|--------------------------------|
A|--------------------------------|2-----------2---2---2-----------|
E|3---3-----------3---3-----------|--------------------------------|
 
G|--------------------------------|--------------------------------|
D|--------------------------------|--------------------------------|
A|3-------3-------3---3-------3---|----------------3---3-----------|
E|--------------------------------|--------------------------------|
 
G|--------------------------------|--------------------------------|
D|--------------------------------|--------------------------------|
A|--------------------------------|2-----------2---2---2-----------|
E|3---3-----------3---3-----------|--------------------------------|
 
G|--------------------------------|--------------------------------|
D|--------------------------------|--------------------------------|
A|3-------3-------3---3-------3---|--------------------------------|
E|--------------------------------|--------------------------------|

[Outro]
G|--------------------------------|--------------------------------|
D|--------------------------------|--------------------------------|
A|--------------------------------|--------------------------------|
E|3---3---3-------3---3---3---3---|----3---3-----------3---3---3---|
 
G|--------------------------------|--------------------------------|
D|--------------------------------|--------------------------------|
A|--------------------------------|--------------------------------|
E|3---3-----------3-------3-------|3-----------3---3---3-----------|
 
G|--------------------------------|--------------------------------|
D|2---2---2---2-------2-------2---|----2-------2-------2---2-------|
A|--------------------------------|--------------------------------|
E|--------------------------------|--------------------------------|
 
G|--------------------------------|--------------------------------|
D|0---0---0-------0---0-----------|0-------0-------0---0-----------|
A|--------------------------------|--------------------------------|
E|--------------------------------|--------------------------------|
 
G|--------------------------------|--------------------------------|
D|--------------------------------|--------------------------------|
A|--------------------------------|--------------------------------|
E|3---3---3-------3---3---3---3---|----3---3-----------3---3---3---|
 
G|--------------------------------|--------------------------------|
D|--------------------------------|--------------------------------|
A|--------------------------------|--------------------------------|
E|3---3-----------3-------3-------|3-----------3---3---3-----------|
 
G|--------------------------------|--------------------------------|
D|2---2---2---2-------2-------2---|----2-------2-------2---2-------|
A|--------------------------------|--------------------------------|
E|--------------------------------|--------------------------------|
 
G|--------------------------------|--------------------------------|
D|0---0---0-------0---0-----------|0-------0-------0---0-----------|
A|--------------------------------|--------------------------------|
E|--------------------------------|--------------------------------|

            
            
Suggest correction
Creating personal tab
Creating personal tab
You can edit any tab online and save it as your Personal.

You can edit, replace or remove any tab part or add personal notes – all changes will be seen only by you.

Personal tabs can be accessed anytime from any device, even offline.
Learn more »
Give kudos to tab author, rate the tab!
1 2 3 4 5
comments
print report bad tab
guest
You may want to rate the tab now too:
select rating
Wanna post a correction for this tab? Suggest correction