Oops, an error
Loading. Please wait.

Heart Attack bass

by Skegss
1,081 views 18 this week
2 commentsread comments
1 2 3 4 5
x 3
add to favorites
×
Save as Personal and add changes to this tab that will be seen only by you. Learn more ›
×
You can save this tab as Personal to edit and correct it or add notes. All changes will be seen only by you. Learn more »
launch autoscroll
font size
0
reset
guitar tuner
edit
Autoscroll
slow
fast
+/-
esc
set tempo
stop
[Verse]

G|--------------|-----9--6---|--------------|-----9--6---|---------------|-----9--6---|------------|
D|-7---7--7-7-7-|6-----------|--------------|6-----------|---------------|6-----------|9--9--9--9--|
A|--------------|------------|9---9--9-9-9--|------------|9---9--9-9-9---|------------|------------|
E|--------------|------------|--------------|------------|---------------|------------|------------|

G|-----------------|
D|-11-11-11--9-7-9-|
A|-----------------|
E|-----------------|Repeated until chorus


[Chorus]

G|--------------|--------------|-------------|-------------|
D|-7---7--7-7-7-|9---11--9-7-9-|7---7--7-7-7-|-------------|
A|--------------|--------------|-------------|9---9--9-9-9-|
E|--------------|--------------|-------------|-------------| repeated, some different bits below

"but when you give me love it starts thumpin" 1:09
G|--------------|--------9-------|-------------|-------------|
D|-7---7--7-7-7-|9---11----11-9--|7---7--7-7-7-|-------------|
A|--------------|----------------|-------------|9---9--9-9-9-|
E|--------------|----------------|-------------|-------------|


[At end of chorus]

G|--------------|---------------|
D|-7---7--7-7-7-|9--9/11---9--7-|
A|--------------|---------------|
E|--------------|---------------|


[Verse]

G|--------------|-----9--6---|--------------|-----9--6---|---------------|-----9--6---|------------|
D|-7---7--7-7-7-|6-----------|--------------|6-----------|---------------|6-----------|9--9--9--9--|
A|--------------|------------|9---9--9-9-9--|------------|9---9--9-9-9---|------------|------------|
E|--------------|------------|--------------|------------|---------------|------------|------------|

G|-----------------|
D|-11-11-11--9-7-9-|
A|-----------------|
E|-----------------|Repeated until chorus


[Chorus]

G|--------------|--------------|-------------|-------------|
D|-7---7--7-7-7-|9---11--9-7-9-|7---7--7-7-7-|-------------|
A|--------------|--------------|-------------|9---9--9-9-9-|
E|--------------|--------------|-------------|-------------| repeated, some different bits below

"but when you give me love it starts thumpin" 1:09
G--------------|--------9-------|-------------|-------------|
D-7---7--7-7-7-|9---11----11-9--|7---7--7-7-7-|-------------|
A--------------|----------------|-------------|9---9--9-9-9-|
E--------------|----------------|-------------|-------------|


[At end of chorus]

G|--------------|---------------|
D|-7---7--7-7-7-|9--9/11---9--7-|
A|--------------|---------------|
E|--------------|---------------|


[Bridge]

"you suck my blood like a vampire, and it stops pumping" 2:09
G|--------------|--------9-------|-------------|-------------|
D|-7---7--7-7-7-|9---11----11-9--|7---7--7-7-7-|-------------|
A|--------------|----------------|-------------|9---9--9-9-9-|
E|--------------|----------------|-------------|-------------|

"do do do do do do do do dod od od od " 2:22
G|-------------9--|-------------|-------------|--------------|---------|------------|
D|-7----9/11------|11--9--7--9--|7---7--9/11--|9--7-----7----|7---7--7/|9---9/11--9-|
A|----------------|-------------|-------------|------11--11--|---------|------------|
E|----------------|-------------|-------------|--------------|---------|------------|


[Verse]

G|--------------|-----9--6---|--------------|-----9--6---|---------------|-----9--6---|------------|
D|-7---7--7-7-7-|6-----------|--------------|6-----------|---------------|6-----------|9--9--9--9--|
A|--------------|------------|9---9--9-9-9--|------------|9---9--9-9-9---|------------|------------|
E|--------------|------------|--------------|------------|---------------|------------|------------|

G|-----------------|
D|-11-11-11--9-7-9-|
A|-----------------|
E|-----------------| 

(ends on 7 on D)

            
            
Suggest correction
Creating personal tab
Creating personal tab
You can edit any tab online and save it as your Personal.

You can edit, replace or remove any tab part or add personal notes – all changes will be seen only by you.

Personal tabs can be accessed anytime from any device, even offline.
Learn more »
Give kudos to tab author, rate the tab!
1 2 3 4 5
comments
print report bad tab
2 comments total.
0 reply
eamonsandwith 567 Jun 05, 2016 03:57 PM

fucken awesome cheers mate

0 reply
mattybrittain 383 Jul 23, 2016 02:54 AM

chur bro fanks for the feedback

guest
You may want to rate the tab now too:
select rating
Wanna post a correction for this tab? Suggest correction