Oops, an error
Loading. Please wait.

Monkey Business bass

version 2
version 2

Whole song

Interactive

7,269 views 1 this week
1 commentread comment
1 2 3 4 5
x 3
add to favorites
×
Save as Personal and add changes to this tab that will be seen only by you. Learn more ›
×
You can save this tab as Personal to edit and correct it or add notes. All changes will be seen only by you. Learn more »
launch autoscroll
font size
0
reset
guitar tuner
backing track
0:00
0:00
edit
Autoscroll
slow
fast
+/-
esc
set tempo
stop
Author
Difficulty
Unregistered
intermediate
Monkey Business - Skid Row (Bass)
Tabbed by Shifty Bandit

I didn't put the slides in - you can figure out where they go. By no means is this meant 
be perfect but it's really close. No typical bargoer would be able to tell the difference.


MAIN RIFF/CHORUS
0:35
G|------------------------------------------------------------------------|
D|------------------------------------------------------------------------|
A|--0--------------------0---------------------0--------------------------|
E|-----2-0-1-2-0-2-0-2-----2-0-1-2-0-2-0-2-------2-0-1-2-0-2-0-2----------|

G|----------------------------------------------------------------------|
D|--4~----4-2-----------------------------------------------------------|
A|-----------4-3-2-0-----2---0------------------------------------------|
E|-------------------2--------------------------------------------------|

VERSE
0:45
G|-------------------------------------------------------------|
D|-------------------------------------------------------------|
A|----------0------------2/3\2-----------0---------------------|
E|--2-0-2-0-----2-0-2-0----------2-0-2-0-----2-0-2-0-0--1--2---|

G|-------------------------------------------------------------|
D|-------------------------------------------------------------|
A|----------0------------2/3\2-----------0---------------------|
E|--2-0-2-0-----2-0-2-0----------2-0-2-0-----2-0-2-0-2-0-------|

PRE-CHORUS
1:10
All the pain...
The freaks come out at night...
G|---------------------------------------------------------|
D|-------------------------4------------------4------------|
A|-2-----2---0------h-----------h------h-----------h-------| Repeat
E|---------0-------0-2-2-2---2-0-2----0-2-2-2---2-0-2------|

What's this funk...
G|---------------------------------------------------------|
D|---------------------------------------------------------|
A|-2-----2---0-----4-3-2---0----2--------------------------|
E|---------0-------------------------2---2---2-------------|

G|------------------------------------------------------------------------|
D|------------------------------------------------------------------------|
A|--0--------------------0---------------------0--------------------------|
E|-----2-0-1-2-0-2-0-2-----2-0-1-2-0-2-0-2-------2-0-1-2-0-2-0-2----------|

G|----------------------------------------------------------------------|
D|--4~----4-2-----------------------------------------------------------|
A|-----------4-3-2-0-----2---0------------------------------------------|
E|-------------------2--------------------------------------------------|

VERSE
G|-------------------------------------------------------------|
D|-------------------------------------------------------------|
A|----------0------------2/3\2-----------0---------------------|
E|--2-0-2-0-----2-0-2-0----------2-0-2-0-----2-0-2-0-0--1--2---|

G|-------------------------------------------------------------|
D|-------------------------------------------------------------|
A|----------0------------2/3\2-----------0---------------------|
E|--2-0-2-0-----2-0-2-0----------2-0-2-0-----2-0-2-0-2-0-------|

PRE-CHORUS
G|---------------------------------------------------------|
D|-------------------------4------------------4------------|
A|-2-----2---0------h-----------h------h-----------h-------| Repeat
E|---------0-------0-2-2-2---2-0-2----0-2-2-2---2-0-2------|

G|---------------------------------------------------------|
D|---------------------------------------------------------|
A|-2-----2---0-----4-3-2---0----2--------------------------|
E|---------0-------------------------2---2---2-------------|

CHORUS x2
G|------------------------------------------------------------------------|
D|------------------------------------------------------------------------|
A|--0--------------------0---------------------0--------------------------|
E|-----2-0-1-2-0-2-0-2-----2-0-1-2-0-2-0-2-------2-0-1-2-0-2-0-2----------|

G|----------------------------------------------------------------------|
D|--4~----4-2-----------------------------------------------------------|
A|-----------4-3-2-0-----2---0------------------------------------------|
E|-------------------2--------------------------------------------------|

2:29
G|-----------------------------------|
D|-----------------------------------|
A|-----------------------------------|
E|--2--2--2-----2--2--2----2--0------|

INTERLUDE (quiet part)
                  h      h
G|------------11---9-11---9-11--9---11-9---------------------|this is
D|--------/11-----------------------------11-10-9-7----------|pretty close
A|--------------------------------------------------9--------|not sure if
E|--2--------------------------------------------------------|exactly right

G|-------------------------|
D|-------4-----------------| variation of this several times
A|--h-------h-----h--------|
E|-0-2-2---0-2-2-0-2-------|

3:04
F# on low E to build up
G|-----------------------------------|
D|-----------------------------------|
A|-----------------------------------|
E|--2--2--2--2--2--2--2--2--2--2-----|

Guitar Solo
G|---------------------------------------------------------|
D|-------------------------4------------------4------------|
A|-2-----2---0------h-----------h------h-----------h-------| Repeat
E|---------0-------0-2-2-2---2-0-2----0-2-2-2---2-0-2------|

G|---------------------------------------------------------|
D|---------------------------------------------------------|
A|-2-----2---0-----4-3-2---0----2--------------------------|
E|---------0-------------------------2---2---2-------------|

CHORUS x4
G|------------------------------------------------------------------------|
D|------------------------------------------------------------------------|
A|--0--------------------0---------------------0--------------------------|
E|-----2-0-1-2-0-2-0-2-----2-0-1-2-0-2-0-2-------2-0-1-2-0-2-0-2----------|

G|----------------------------------------------------------------------|
D|--4~----4-2-----------------------------------------------------------|
A|-----------4-3-2-0-----2---0------------------------------------------|
E|-------------------2--------------------------------------------------|


I think that's pretty much all of it - just repeat each part where necessary. If I 
anything it's probably an F#.

            
            
Suggest correction
Creating personal tab
Creating personal tab
You can edit any tab online and save it as your Personal.

You can edit, replace or remove any tab part or add personal notes – all changes will be seen only by you.

Personal tabs can be accessed anytime from any device, even offline.
Learn more »
Give kudos to tab author, rate the tab!
1 2 3 4 5
comments
print report bad tab
1 comment total.
0 reply
slomoslam 10 Sep 11, 2007 05:52 PM

this tab is better than Cats! I'll see it again, and again!

guest
Wanna post a correction for this tab? Suggest correction