Oops, an error
Loading. Please wait.

Boundaries tab

version 1
version 1

Whole song

  • Corrected a few errors from the past version to ma... Show more
by Skillet
37 views 1 this week
3 commentsread comments
1 2 3 4 5
3 more votes to show rating
add to favorites
×
Save as Personal and add changes to this tab that will be seen only by you. Learn more ›
×
You can save this tab as Personal to edit and correct it or add notes. All changes will be seen only by you. Learn more »
launch autoscroll
font size
0
reset
how to read this tab
guitar tuner
edit
Autoscroll
slow
fast
+/-
esc
set tempo
stop
Guitar 1 (Clean, Flanger, Reverb)

Guitar 2 (Distorted)

Guitar 3 (Clean, Reverb)

Guitar 4 (Distorted, Wah)

[Intro]

(Guitar 1)
e|---------------------------------------------------------------------------|
B|---------------------------------------------------------------------------|
G|-----------------------------------5-5-5-5---------------------------------|
D|-5--5-5-------8--8-8--3--3-3-------5-5-5-5---------------------------------| x2
A|-5--5-5--x-x--8--8-8--3--3-3--x-x--3-3-3-3---------------------------------|
D|-5--5-5--x-x--8--8-8--3--3-3--x-x------------------------------------------|

Guitar 2 plays the last notes on the second repeat as dead notes.


[Verse 1]

e|---------------------------------------------------------------------------|
B|---------------------------------------------------------------------------|
G|-----------------------------------5-5-5-5---------------------------------|
D|-5--5-5-------8--8-8--3--3-3-------5-5-5-5---------------------------------| x4
A|-5--5-5--x-x--8--8-8--3--3-3--x-x--3-3-3-3---------------------------------|
D|-5--5-5--x-x--8--8-8--3--3-3--x-x------------------------------------------|


e|---------------------------------------------------------------------------|
B|---------------------------------------------------------------------------|
G|---------------------------------------------------------------------------|
D|-5--5-5--3--3-3--1--1-1--1--1-1--3--3-3--1--1-1--0-0-0-0-0-0-0-0-0-0-0-0---|
A|-5--5-5--3--3-3--1--1-1--1--1-1--3--3-3--1--1-1--0-0-0-0-0-0-0-0-0-0-0-0---|
D|-5--5-5--3--3-3--1--1-1--1--1-1--3--3-3--1--1-1--0-0-0-0-0-0-0-0-0-0-0-0---|

(Guitar 3) This tab starts at exactly the same time as the one above.
e|---------------------------------------------------------------------------|
B|---------------------------------------------------------------------------|
G|---------------------------------------------------------------------------|
D|-----5-------3-------1--------1------3-------1--------0--------0-----------|
A|---5---5---3---3---1---1-------1---3---3---1---1----0---0------------------|
D|-5-------3-------1----------1----3-------1--------0----------0-------------|

[Chorus]

(Guitar 2)
e|---------------------------------------------------------------------------|
B|---------------------------------------------------------------------------|
G|----------------------------5-5-5-5----------------------------------------|
D|-5-5-5-5--8-8-8-8--3-3-3-3--5-5-5-5----------------------------------------| x3
A|-5-5-5-5--8-8-8-8--3-3-3-3--3-3-3-3----------------------------------------|
D|-5-5-5-5--8-8-8-8--3-3-3-3-------------------------------------------------|

e|---------------------------------------------------------------------------|
B|---------------------------------------------------------------------------|
G|---------------------------------------------------------------------------|
D|-5-5-5-5--8-8-8-8--3-3-3-3--6-6-6-6--8-8-8-8-------------------------------|
A|-5-5-5-5--8-8-8-8--3-3-3-3--6-6-6-6--8-8-8-8-------------------------------|
D|-5-5-5-5--8-8-8-8--3-3-3-3--6-6-6-6--8-8-8-8-------------------------------|

[Post Chorus]

e|------------------|
B|------------------|
G|------------------|
D|-1-1-1-1--3-3-3-3-|
A|-1-1-1-1--3-3-3-3-|
D|-1-1-1-1--3-3-3-3-|

[Break]

(Guitar 1)
e|---------------------------------------------------------------------------|
B|---------------------------------------------------------------------------|
G|-----------------------------------5-5-5-5---------------------------------|
D|-5--5-5-------8--8-8--3--3-3-------5-5-5-5---------------------------------| x2
A|-5--5-5--x-x--8--8-8--3--3-3--x-x--3-3-3-3---------------------------------|
D|-5--5-5--x-x--8--8-8--3--3-3--x-x------------------------------------------|

Guitar 2 plays the last notes on the second repeat as dead notes.

[Verse 2]

(Guitar 1)
e|---------------------------------------------------------------------------|
B|---------------------------------------------------------------------------|
G|-----------------------------------5-5-5-5---------------------------------|
D|-5--5-5-------8--8-8--3--3-3-------5-5-5-5---------------------------------| x4
A|-5--5-5--x-x--8--8-8--3--3-3--x-x--3-3-3-3---------------------------------|
D|-5--5-5--x-x--8--8-8--3--3-3--x-x------------------------------------------|


e|---------------------------------------------------------------------------|
B|---------------------------------------------------------------------------|
G|---------------------------------------------------------------------------|
D|-5--5-5--3--3-3--1--1-1--1--1-1--3--3-3--1--1-1--0-0-0-0-0-0-0-0-0-0-0-0---|
A|-5--5-5--3--3-3--1--1-1--1--1-1--3--3-3--1--1-1--0-0-0-0-0-0-0-0-0-0-0-0---|
D|-5--5-5--3--3-3--1--1-1--1--1-1--3--3-3--1--1-1--0-0-0-0-0-0-0-0-0-0-0-0---|

(Guitar 3) This tab starts at exactly the same time as the one above.
e|---------------------------------------------------------------------------|
B|---------------------------------------------------------------------------|
G|---------------------------------------------------------------------------|
D|-----5-------3-------1--------1------3-------1--------0--------0-----------|
A|---5---5---3---3---1---1-------1---3---3---1---1----0---0------------------|
D|-5-------3-------1----------1----3-------1--------0----------0-------------|

[Chorus]

(Guitar 2)
e|---------------------------------------------------------------------------|
B|---------------------------------------------------------------------------|
G|----------------------------5-5-5-5----------------------------------------|
D|-5-5-5-5--8-8-8-8--3-3-3-3--5-5-5-5----------------------------------------| x3
A|-5-5-5-5--8-8-8-8--3-3-3-3--3-3-3-3----------------------------------------|
D|-5-5-5-5--8-8-8-8--3-3-3-3-------------------------------------------------|

e|---------------------------------------------------------------------------|
B|---------------------------------------------------------------------------|
G|---------------------------------------------------------------------------|
D|-5-5-5-5--8-8-8-8--3-3-3-3--6-6-6-6--8-8-8-8-------------------------------|
A|-5-5-5-5--8-8-8-8--3-3-3-3--6-6-6-6--8-8-8-8-------------------------------|
D|-5-5-5-5--8-8-8-8--3-3-3-3--6-6-6-6--8-8-8-8-------------------------------|

[Bridge]

e|---------------------------------------------------------------------------|
B|---------------------------------------------------------------------------|
G|-----------------------------------------------5---------------------------|
D|-1-1-1-3--8--3--1-3-1-3--6-5-3-3-5----1-1-1-3--5--3--1-3-1-3--6-5-3-3-5----| x4
A|-1-1-1-3--8--3--1-3-1-3--6-5-3-3-5----1-1-1-3--3--3--1-3-1-3--6-5-3-3-5----|
D|-1-1-1-3--8--3--1-3-1-3--6-5-3-3-5----1-1-1-3-----3--1-3-1-3--6-5-3-3-5----|

Guitar 4 will play along every few measures. 

[Outro Chorus]

e|---------------------------------------------------------------------------|
B|---------------------------------------------------------------------------|
G|-----------------------------7-7-7-7---------------------------------------|
D|-7-7-7-7-10-10-10-10-5-5-5-5-7-7-7-7---------------------------------------| x3
A|-7-7-7-7-10-10-10-10-5-5-5-5-5-5-5-5---------------------------------------|
D|-7-7-7-7-10-10-10-10-5-5-5-5-----------------------------------------------|

e|---------------------------------------------------------------------------|
B|---------------------------------------------------------------------------|
G|---------------------------------------------------------------------------|
D|-7-7-7-7-10-10-10-10-5-5-5-5-8-8-8-8-10-10-10-10---------------------------|
A|-7-7-7-7-10-10-10-10-5-5-5-5-8-8-8-8-10-10-10-10---------------------------|
D|-7-7-7-7-10-10-10-10-5-5-5-5-8-8-8-8-10-10-10-10---------------------------|

e|---------------------------------------------------------------------------|
B|---------------------------------------------------------------------------|
G|-5-5-5-5-7-7-7-7-5-5-5-5-7-7-7-7-------------------------------------------|
D|-5-5-5-5-7-7-7-7-5-5-5-5-7-7-7-7-------------------------------------------| x3
A|-3-3-3-3-5-5-5-5-3-3-3-3-5-5-5-5-------------------------------------------|
D|---------------------------------------------------------------------------|

e|---------------------------------------------------------------------------|
B|---------------------------------------------------------------------------|
G|-5-5-5-5-7-7-7-7-5-5-5-5-7-7-7-7--2----------------------------------------|
D|-5-5-5-5-7-7-7-7-5-5-5-5-7-7-7-7--2----------------------------------------|
A|-3-3-3-3-5-5-5-5-3-3-3-3-5-5-5-5--0----------------------------------------|
D|---------------------------------------------------------------------------|

END

************************************
| x   Dead note
************************************

            
            
Suggest correction
Creating personal tab
Creating personal tab
You can edit any tab online and save it as your Personal.

You can edit, replace or remove any tab part or add personal notes – all changes will be seen only by you.

Personal tabs can be accessed anytime from any device, even offline.
Learn more »
Give kudos to tab author, rate the tab!
1 2 3 4 5
comments
print report bad tab
3 comments total.
0 reply
murallafacudiaz 953 May 08, 2017 02:35 AM

Tip:

The pre-chorus is better if you do it an octave higher, sounds more accurate

Outro chorus you got it halfway right, is actually:

B (9th fret) - D (not open, but D5) - A (7 fret) - E (an octave higher)

same pattern as the chorus, then it just repeats C - D until the end, with indeed ends in a A powerchord

+1 reply
PizzaSteve3902 280 May 08, 2017 03:42 PM, edited at 07:46 pm

I knew something was off about the outro chorus, but I couldn't figure it out. Thanks.
But about the pre-chorus, I played the whole thing on an acoustic guitar along with the recording, and up to the last of the outro sounded perfect to me.

0 reply
murallafacudiaz 953 May 09, 2017 05:56 AM

You're welcome! but trust me, the pre-chorus sounds better (IMO) if done the chords an octave higher.

In case you need any help or whatever, the origina guitar player for Skillet (Ken Steorts) tabbed the song back in the day, so here you go (they're the chords, actually, but meh) http://www.christianguitar.org/csong3727/-Boundries

guest
You may want to rate the tab now too:
select rating
Wanna post a correction for this tab? Suggest correction