Oops, an error
Loading. Please wait.

Dont Wake Me bass

version 2
version 2

Whole song

by Skillet
370 views 1 this week
no commentswrite comment
1 2 3 4 5
2 more votes to show rating
add to favorites
×
Save as Personal and add changes to this tab that will be seen only by you. Learn more ›
×
You can save this tab as Personal to edit and correct it or add notes. All changes will be seen only by you. Learn more »
launch autoscroll
font size
0
reset
guitar tuner
edit
Autoscroll
slow
fast
+/-
esc
set tempo
stop
Author
0:13
G|---------------------------------------------------------------------|
D|---------------------------------------------------------------------|
A|-8-\-1-------1-----1---1-1---1---1-/-6-------6-----6---6-6---6---6-\-|
E|---------------------------------------------------------------------|
B|---------------------------------------------------------------------|
   + a 1 e + a 2 e + a 3 e + a 4 e + a 1 e + a 2 e + a 3 e + a 4 e + a

G|-----------------------------------------------------------------|
D|-----------------------------------------------------------------|
A|-3-------3-----3---3-3---3---3-----------------------------------|
E|---------------------------------1-------1-----1---1-1---1-1-1---|
B|-----------------------------------------------------------------|
   1 e + a 2 e + a 3 e + a 4 e + a 1 e + a 2 e + a 3 e + a 4 e + a

G|-----------------------------------------------------------------|
D|-----------------------------------------------------------------|
A|-------------------------------------------------6---6---8-8-8---|
E|-3---3---3-------5---5---5-------4---4---4-----------------------|
B|-----------------------------------------------------------------|
   1 e + a 2 e + a 3 e + a 4 e + a 1 e + a 2 e + a 3 e + a 4 e + a

0:35
G|------------------------------------------------------------------|
D|------------------------------------------------------------------|
A|-3-------3-----3---3-3---3-------3-------3-----3---3-3---3-3-2----|
E|-----------------------------3------------------------------------|
B|------------------------------------------------------------------|
   1 e + a 2 e + a 3 e + a 4 e + a 1 e + a 2 e + a 3 e + a 4 e + a

G|------------------------------------------------------------------|
D|------------------------------------------------------------------|
A|-0-------0-----0---0-0---0-------0-------0-----0---0-0---0--------|
E|-----------------------------3-----------------------------3------|
B|------------------------------------------------------------------|
   1 e + a 2 e + a 3 e + a 4 e + a 1 e + a 2 e + a 3 e + a 4 e + a

G|------------------------------------------------------------------|
D|------------------------------------------------------------------|
A|---------------------------------------------------------2-2-5----|
E|-1---1---1---1-1-1-1-1---1---1-1-3---3---3---3-3-3---3------------|
B|------------------------------------------------------------------|
   1 e + a 2 e + a 3 e + a 4 e + a 1 e + a 2 e + a 3 e + a 4 e + a

G|---------------------------------|
D|---------------------------------|
A|-3-------3-----3---3-3---3---3-\-|
E|---------------------------------|
B|---------------------------------|
   1 e + a 2 e + a 3 e + a 4 e + a

1:01
G|-----------------------------------------------------------------|
D|-----------------------------------------------------------------|
A|-1-------1-----1---1-1---1---1-/-6-------6-----6---6-6-8-6---5-\-|
E|-----------------------------------------------------------------|
B|-----------------------------------------------------------------|
   1 e + a 2 e + a 3 e + a 4 e + a 1 e + a 2 e + a 3 e + a 4 e + a

G|-----------------------------------------------------------------|
D|-----------------------------------------------------------------|
A|-3-------3-----3---3-3-5-6---3-\---------------------------------|
E|---------------------------------1-------1-----1---1-1---1---1---|
B|-----------------------------------------------------------------|
   1 e + a 2 e + a 3 e + a 4 e + a 1 e + a 2 e + a 3 e + a 4 e + a

G|---------3-------------------------------------------------------|
D|-----3-----------------------------------------------------------|
A|-1-------------1---1-1---1---1-/-6-------------6---6-6---6---6-\-|
E|-----------------------------------------------------------------|
B|-----------------------------------------------------------------|
   1 e + a 2 e + a 3 e + a 4 e + a 1 e + a 2 e + a 3 e + a 4 e + a
                                  
G|-----------------------------------------------------------------|
D|-----------------------------------------------------------------|
A|-3-------3-----3---3-3---3---3-\---------------------------------|
E|---------------------------------1-------1-----1---1-1---1-1-1---|
B|-----------------------------------------------------------------|
   1 e + a 2 e + a 3 e + a 4 e + a 1 e + a 2 e + a 3 e + a 4 e + a

G|-----------------------------------------------------------------|
D|-----------------------------------------------------------------|
A|-------------------------------------------------6---6---8-8-8-8-|
E|-3---3---3---3---5---5---5---5---4---4---4---4-------------------|
B|-----------------------------------------------------------------|
   1 e + a 2 e + a 3 e + a 4 e + a 1 e + a 2 e + a 3 e + a 4 e + a

1:38
G|------------------------------------------------------------------|
D|------------------------------------------------------------------|
A|-3---3---3-----3---3-3---3-------3---3---3-----3---3-3---3-3-2----|
E|-----------------------------3------------------------------------|
B|------------------------------------------------------------------|
   1 e + a 2 e + a 3 e + a 4 e + a 1 e + a 2 e + a 3 e + a 4 e + a

G|------------------------------------------------------------------|
D|------------------------------------------------------------------|
A|-0---0---0-----0---0-0---0-------0-------0-----0---0-0---0--------|
E|-----------------------------3-----------------------------3------|
B|------------------------------------------------------------------|
   1 e + a 2 e + a 3 e + a 4 e + a 1 e + a 2 e + a 3 e + a 4 e + a

G|------------------------------------------------------------------|
D|------------------------------------------------------------------|
A|---------------------------------------------------------2-2-5----|
E|-1---1---1---1-1-1---1---1---1-1-3---3---3---3-3-3---3------------|
B|------------------------------------------------------------------|
   1 e + a 2 e + a 3 e + a 4 e + a 1 e + a 2 e + a 3 e + a 4 e + a

2:00
G|------------------------------------------------------------------|
D|------------------------------------------------------------------|
A|-3---3---3-----3---3-3---3-------3---3---3-----3---3-3---3-3-3----|
E|-----------------------------3------------------------------------|
B|------------------------------------------------------------------|
   1 e + a 2 e + a 3 e + a 4 e + a 1 e + a 2 e + a 3 e + a 4 e + a

G|------------------------------------------------------------------|
D|------------------------------------------------------------------|
A|-0---0---0-----0---0-0---0-------0-------0-----0---0-0---0--------|
E|-----------------------------3-----------------------------3------|
B|------------------------------------------------------------------|
   1 e + a 2 e + a 3 e + a 4 e + a 1 e + a 2 e + a 3 e + a 4 e + a

G|-------------------------------------------------------------------------|
D|-------------------------------------------------------------------------|
A|-------------------------------------------------------------------------|
E|-1---1---1---1-1-1---1---1---1-1-3---3---3---3-3/15-15-15-15-15-15-15-15-|
B|-------------------------------------------------------------------------|
   1 e + a 2 e + a 3 e + a 4 e + a 1 e + a 2 e + a 3  e  +  a  4  e  +  a

2:22
G|-------------------------------------------------------------------|
D|o-----------------------------------------------------------------o|
A|------------------6---6---6---6------------------------------------|
E|o-4---4---4---4-------------------6---6---6---6---3---3---3---3---o|
B|-------------------------------------------------------------------|
    1 e + a 2 e + a 3 e + a 4 e + a 1 e + a 2 e + a 3 e + a 4 e + a

G|-------------------------|
D|-------------------------|
A|-------------------------|
E|/15-15-15-15-15-15-15-15-|
B|-------------------------|
   1  e  +  a  2  e  +  a

Rest

2:52
G|------------------------------------------------------------------------------|
D|-----------------------------------------5-5-5-7-7-7-9-9-9-9-9-10-10-10-12-12-|
A|-0----------------------------------------------------------------------------|
E|---3-----1---1---1---1-1-1---1---1---1-1--------------------------------------|
B|------------------------------------------------------------------------------|
   4 e + a 1 e + a 2 e + a 3 e + a 4 e + a 1 e + a 2 e + a 3 e + a  4  e  +  a

3:00
G|------------------------------------------------------------------|
D|------------------------------------------------------------------|
A|-3---3---3-----3---3-3---3-------3---3---3-----3---3-3---3---3----|
E|-----------------------------3------------------------------------|
B|------------------------------------------------------------------|
   1 e + a 2 e + a 3 e + a 4 e + a 1 e + a 2 e + a 3 e + a 4 e + a

G|-----------------------------------------------------------------|
D|-----------------------------------------------------------------|
A|-0-------0-----0---0-0---0-------0-------0-----0---0-0---0-------|
E|-----------------------------3-----------------------------3-----|
B|-----------------------------------------------------------------|
   1 e + a 2 e + a 3 e + a 4 e + a 1 e + a 2 e + a 3 e + a 4 e + a

G|-----------------------------------------------------------------|
D|-----------------------------------------------------------------|
A|---------------------------------------------------------2---5---|
E|-1---1---1---1---1---1---1---1---3---3---3---3---3---3-----------|
B|-----------------------------------------------------------------|
   1 e + a 2 e + a 3 e + a 4 e + a 1 e + a 2 e + a 3 e + a 4 e + a

3:22
G|-----------------------------------------------------------------|
D|-----------------------------------------------------------------|
A|-3---3---3---3-3---3-3---3-------3---3---3---3-3---3-3---3-3-2-2-|
E|-----------------------------3-3---------------------------------|
B|-----------------------------------------------------------------|
   1 e + a 2 e + a 3 e + a 4 e + a 1 e + a 2 e + a 3 e + a 4 e + a

G|------------------------------------------------------------------|
D|------------------------------------------------------------------|
A|-0---0---0---0-0---0-0---0-------0---0---0---0-0---0-0---0--------|
E|-----------------------------3-----------------------------3------|
B|------------------------------------------------------------------|
   1 e + a 2 e + a 3 e + a 4 e + a 1 e + a 2 e + a 3 e + a 4 e + a

G|-----------------------------------------------------------------|
D|-------------------------------------------------5---------------|
A|-----------------------------------------------------------------|
E|-1---1---1---1---1---1---1---1---3---3---3---3-------------------|
B|-----------------------------------------------------------------|
   1 e + a 2 e + a 3 e + a 4 e + a 1 e + a 2 e + a 3 e + a 4 e + a
Tabbed by Dave Vucko

            
            
Suggest correction
Creating personal tab
Creating personal tab
You can edit any tab online and save it as your Personal.

You can edit, replace or remove any tab part or add personal notes – all changes will be seen only by you.

Personal tabs can be accessed anytime from any device, even offline.
Learn more »
Give kudos to tab author, rate the tab!
1 2 3 4 5
comments
print report bad tab
guest
You may want to rate the tab now too:
select rating
Wanna post a correction for this tab? Suggest correction