Oops, an error
Loading. Please wait.

Dont Wake Me bass

version 1
version 1

Whole song

by Skillet
3,595 views 1 this week
no commentswrite comment
1 2 3 4 5
x 4
add to favorites
×
Save as Personal and add changes to this tab that will be seen only by you. Learn more ›
×
You can save this tab as Personal to edit and correct it or add notes. All changes will be seen only by you. Learn more »
launch autoscroll
font size
0
reset
guitar tuner
edit
Autoscroll
slow
fast
+/-
esc
set tempo
stop
5-String as usual.  Sorry its been so long, I've had alot of stuff to do lately.
0:14
G|------------------------------------------------------------------------|
D|------------------------------------------------------------------------|
A|-8/1--1--1--1-1-1--1\6--6--6--6-6-6--6/3--3--3--3-3-3--3\8--8--8--8-8-8-|
E|------------------------------------------------------------------------|
B|------------------------------------------------------------------------|

|--------------------------------|
|--------------------------------|
|-----------------6-6-6-6-6-6-8~~|
|-3-3-3-3-5-5-5-5----------------|
|--------------------------------|

|------------------------------------------------------------------|
|------------------------------------------------------------------|
|-3---3---3--3-3--3--3--3---3---3--3-3--3--3--0---0---0--0-0--0--0-|
|------------------------------------------------------------------|
|------------------------------------------------------------------|

|------------------------------------------------------------------|
|------------------------------------------------------------------|
|-0---0---0--0-0--0------------------------------------------------|
|-------------------3--1---1---1--1-1--1--1--3---3---3--3-3--3--3--|
|------------------------------------------------------------------|

|------------------------|
|------------------------|
|-3---3---3--3-3--3--3/1-|
|------------------------|
|------------------------|

|------------------------------------------------------------------------|
|------------------------------------------------------------------------|
|-8/1--1--1--1-1-1--1\6--6--6--6-6-6--6/3--3--3--3-3-3--3\8--8--8--8-8-8-|
|------------------------------------------------------------------------|
|------------------------------------------------------------------------|
                                  
|------------------------------------------------------------------------|
|------------------------------------------------------------------------|
|-8/1--1--1--1-1-1--1\6--6--6--6-6-6--6/3--3--3--3-3-3--3\8--8--8--8-8-8-|
|------------------------------------------------------------------------|
|------------------------------------------------------------------------|

|--------------------------------|
|--------------------------------|
|-----------------6-6-6-6-6-6-8~~|
|-3-3-3-3-5-5-5-5----------------|
|--------------------------------|

|------------------------------------------------------------------|
|------------------------------------------------------------------|
|-3---3---3--3-3--3--3--3---3---3--3-3--3--3--0---0---0--0-0--0--0-|
|------------------------------------------------------------------|
|------------------------------------------------------------------|

|------------------------------------------------------------------|
|------------------------------------------------------------------|
|-0---0---0--0-0--0------------------------------------------------|
|-------------------3--1---1---1--1-1--1--1--3---3---3--3-3--3--3--|
|------------------------------------------------------------------|

|------------------------------------------------------------------|
|------------------------------------------------------------------|
|-3---3---3--3-3--3--3--3---3---3--3-3--3--3--0---0---0--0-0--0--0-|
|------------------------------------------------------------------|
|------------------------------------------------------------------|

|------------------------------------------------------------------|
|------------------------------------------------------------------|
|-0---0---0--0-0--0------------------------------------------------|
|-------------------3--1---1---1--1-1--1--1--3---3---3--3-3--3--3--|
|------------------------------------------------------------------|
                                         x2
| |-------------------------------------| |-------------|
|o|-------------------------------------|o|-------------|
| |-5-5-5-5-6-6-6-6-8-8-8-8-10-10-10-10-| |-10-10-10-10-|
|o|-------------------------------------|o|-------------|
| |-------------------------------------| |-------------|

Short Pause

|--------------------------------------------------|
|--------------------------------------------------|
|-0------------------------------------------------|
|---3--1---1---1--1-1--1--1--3---3---3--3-3--3--3--|
|--------------------------------------------------|

|------------------------------------------------------------------|
|------------------------------------------------------------------|
|-3---3---3--3-3--3--3--3---3---3--3-3--3--3--0---0---0--0-0--0--0-|
|------------------------------------------------------------------|
|------------------------------------------------------------------|

|------------------------------------------------------------------|
|------------------------------------------------------------------|
|-0---0---0--0-0--0------------------------------------------------|
|-------------------3--1---1---1--1-1--1--1--3---3---3--3-3--3--3--|
|------------------------------------------------------------------|

|------------------------------------------------------------------|
|------------------------------------------------------------------|
|-3---3---3--3-3--3--3--3---3---3--3-3--3--3--0---0---0--0-0--0--0-|
|------------------------------------------------------------------|
|------------------------------------------------------------------|

|------------------------------------------------------------------|
|------------------------------------------------------------------|
|-0---0---0--0-0--0------------------------------------------------|
|-------------------3--1---1---1--1-1--1--1--3---3---3--3-3--3--3--|
|------------------------------------------------------------------|

|-------|
|-------|
|-3~~~~~|
|-------|
|-------|

Thanks For Reading!

            
            
Suggest correction
Creating personal tab
Creating personal tab
You can edit any tab online and save it as your Personal.

You can edit, replace or remove any tab part or add personal notes – all changes will be seen only by you.

Personal tabs can be accessed anytime from any device, even offline.
Learn more »
comments
print report bad tab
guest
You may want to rate the tab now too:
select rating
Wanna post a correction for this tab? Suggest correction