Oops, an error
Loading. Please wait.
We have an official Hero tab made by UG professional guitarists. Check out the tab »
×
by Skillet
4,046 views 15 this week
no commentswrite comment
1 2 3 4 5
1 last vote to show rating
add to favorites
×
Save as Personal and add changes to this tab that will be seen only by you. Learn more ›
×
You can save this tab as Personal to edit and correct it or add notes. All changes will be seen only by you. Learn more »
launch autoscroll
font size
0
reset
guitar tuner
backing track
0:00
0:00
edit
Autoscroll
slow
fast
+/-
esc
set tempo
stop
Author
0:03
G|-----------------------------------------------------------------|
D|-----------------------------------------------------------------|
A|-----------------------------------------------------------------|
E|-----------------------------------------------------------------|
B|-4-4-4-4---------4---------------4-4-4-4---4-4-7---7-7---2-2-2---|
   1 + 2 + 3 + 4 + 1 + 2 + 3 + 4 + 1 + 2 + 3 + 4 + 1 + 2 + 3 + 4 +  

G|-----------------------------------------------------------------|
D|-----------------------------------------------------------------|
A|-----------------------------------------------------------------|
E|-----------------------------------------------------------------|
B|-4-4-4-4---4-4-0---0-0---2-2-2---4-4-4-4---4-4-7---7-7---2-2-2---|
   1 + 2 + 3 + 4 + 1 + 2 + 3 + 4 + 1 + 2 + 3 + 4 + 1 + 2 + 3 + 4 +  

G|---------------------------------|
D|---------------------------------|
A|---------------------------------|
E|---------------------------------|
B|-4-4-4-4---4-4-0---0-0---2-2-2-2-|
   1 + 2 + 3 + 4 + 1 + 2 + 3 + 4 +

rest

0:21
G|-----------------------------------------------------------------|
D|-----------------------------------------------------------------|
A|-----------------------------------------------------------------|
E|--------/7---6---------------------6-----7-7-6-------------------|
B|-4-4-4-4-------------7-----7-6-7-4-----4-------------7-----7-6-2-|
   1 + 2 + 3 + 4 + 1 + 2 + 3 + 4 + 1 + 2 + 3 + 4 + 1 + 2 + 3 + 4 +  

G|-----------------------------------------------------------------|
D|-----------------------------------------------------------------|
A|-----------------------------------------------------------------|
E|--------/7---6---------------------6-----7-7-6-------------------|
B|-4-4-4-4-------------------7-6-7-4-----4-------------7-----7-2-2-|
   1 + 2 + 3 + 4 + 1 + 2 + 3 + 4 + 1 + 2 + 3 + 4 + 1 + 2 + 3 + 4 +  

0:35
G|-----------------------------------------------------------------|
D|-----------------------------------------------------------------|
A|-----------------------------------------------------------------|
E|-4-4-4-4---4-4-7---7-7---7-7-7-7---------7---6-----------7---6---|
B|---------------------------------4-4---4-----------4---4---------|
   1 + 2 + 3 + 4 + 1 + 2 + 3 + 4 + 1 + 2 + 3 + 4 + 1 + 2 + 3 + 4 +  

G|-----------------------------------------------------------------|
D|-----------------------------------------------------------------|
A|-----------------------------------------------------------------|
E|-4-4-4-4---4-4-7---7-7---7-7-7-7---------7---6-------------------|
B|---------------------------------4-4---4-----------7-7-7-7-------|
   1 + 2 + 3 + 4 + 1 + 2 + 3 + 4 + 1 + 2 + 3 + 4 + 1 + 2 + 3 + 4 + 

0:49
G|-------------------------------------------------------------------|
D|o-----------------------------------------------------------------o|
A|-------------------------------------------------------------------|
E|o-----------------------------------------------------------------o|
B|--4-4-4-4---4-4-7---7-7---2-2-----4-4-4-4---4-4-0---0-0---2-2-2-2--|
    1 + 2 + 3 + 4 + 1 + 2 + 3 + 4 + 1 + 2 + 3 + 4 + 1 + 2 + 3 + 4 +  

1:02
G|-----------------------------------------------------------------|
D|-----------------------------------------------------------------|
A|-----------------------------------------------------------------|
E|--------/7---6---------------------6-----7-7-6-------------------|
B|-4-4-4-4-------------7-----7-6-7-4-----4-------------7-----7-6-2-|
   1 + 2 + 3 + 4 + 1 + 2 + 3 + 4 + 1 + 2 + 3 + 4 + 1 + 2 + 3 + 4 +  

G|-----------------------------------------------------------------|
D|-----------------------------------------------------------------|
A|-----------------------------------------------------------------|
E|--------/7---6---------------------6-----7-7-6-------------------|
B|-4-4-4-4-------------7-----7-6-7-4-----4-------------7-----7-2---|
   1 + 2 + 3 + 4 + 1 + 2 + 3 + 4 + 1 + 2 + 3 + 4 + 1 + 2 + 3 + 4 +  

1:15
G|-----------------------------------------------------------------|
D|---------------------9---9---9-----------------------------------|
A|-----------------------------------------------------------------|
E|-4-4-4-4---4-4-7---7---------------------7---6-----------7---6---|
B|---------------------------------4-4---4-----------4---4---------|
   1 + 2 + 3 + 4 + 1 + 2 + 3 + 4 + 1 + 2 + 3 + 4 + 1 + 2 + 3 + 4 +  

G|-----------------------------------------------------------------|
D|---------------------/-9---8-6-8---------------------------------|
A|---------------2---2---------------------------------------------|
E|-4-4-4-4---4-4---------------------------7---6-------------------|
B|---------------------------------4-4---4-----------7-7-7-7-------|
   1 + 2 + 3 + 4 + 1 + 2 + 3 + 4 + 1 + 2 + 3 + 4 + 1 + 2 + 3 + 4 + 

1:29
G|-------------------------------------------------------------------|
D|o-----------------------------------------------------------------o|
A|-------------------------------------------------------------------|
E|o-----------------------------------------------------------------o|
B|--4-4-4-4---4-4-7---7-7---2-2-----4-4-4-4---4-4-0---0-0---2-2-2-2--|
    1 + 2 + 3 + 4 + 1 + 2 + 3 + 4 + 1 + 2 + 3 + 4 + 1 + 2 + 3 + 4 +  

G|-----------------------------------------------------------------|
D|-----------------------------------------------------------------|
A|-----------------------------------------------------------------|
E|-----------------------------------------------------------------|
B|-4-4-4-4-4-4-4-7---7-7-7-2-2-2-2-4-4-4-4-4-4-4-0---0-0-0-2-2-2-2-|
   1 + 2 + 3 + 4 + 1 + 2 + 3 + 4 + 1 + 2 + 3 + 4 + 1 + 2 + 3 + 4 +  

1:49
G|-----------------------------------------------------------------|
D|-----------------------------------------------------------------|
A|-----------------------------------------------------------------|
E|-----------------------------------------------------------------|
B|-4-4-4-4-------------------------4-4-4-4---------4-4-4-4-4-4-4-4-|
   1 + 2 + 3 + 4 + 1 + 2 + 3 + 4 + 1 + 2 + 3 + 4 + 1 + 2 + 3 + 4 +  

1:56
G|-----------------------------------------------------------------|
D|-----------------------------------------------------------------|
A|-----------------------------------------------------------------|
E|-4-4-4-4---4-4-7---7-7---7---7-----------------------------------|
B|---------------------------------4-4-4-4---4-4-2---2-2---2---2---|
   1 + 2 + 3 + 4 + 1 + 2 + 3 + 4 + 1 + 2 + 3 + 4 + 1 + 2 + 3 + 4 +  

G|-----------------------------------------------------------------|
D|-------------------------------------------------/-9-8---6-------|
A|---------------------------------6-6-6-6---6-6-2-------9---9-8-9-|
E|-4-4-4-4---4-4-7---7-7---7-7-7-----------------------------------|
B|-----------------------------------------------------------------|
   1 + 2 + 3 + 4 + 1 + 2 + 3 + 4 + 1 + 2 + 3 + 4 + 1 + 2 + 3 + 4 +  

G|-----------------------------------------------------------------|
D|-----------------------------------------------------------------|
A|-----------------------------------------------------------------|
E|-4-4-4-4---4-4-7---7-7---7-7-7-----------------------------------|
B|---------------------------------4-4-4-4---4-4-2---2-2---2-2-2---|
   1 + 2 + 3 + 4 + 1 + 2 + 3 + 4 + 1 + 2 + 3 + 4 + 1 + 2 + 3 + 4 +  

G|-------------------------------------------------------------------------|
D|-------------------------------------------------------------------------|
A|-------------------------------------------------------------------------|
E|-7---7---7---7---7---7---7---7---9-9-9-9-9-9-9-9-10-10-10-10-10-10-10-10-|
B|-------------------------------------------------------------------------|
   1 + 2 + 3 + 4 + 1 + 2 + 3 + 4 + 1 + 2 + 3 + 4 + 1  +  2  +  3  +  4  +  

G|---------------------------------|
D|---------------------------------|
A|---------------------------------|
E|---------------------------------|
B|-4-4-4-4---------4-4-4-4-4-4-4-4-|
   1 + 2 + 3 + 4 + 1 + 2 + 3 + 4 +  

2:27
G|-----------------------------------------------------------------|
D|-----------------------------------------------------------------|
A|-----------------------------------------------------------------|
E|-----------------------------------------------------------------|
B|-4-4-4-4---4-4-4-7---------------4-4-4-4---4-4-0---0-0---2-2-2-2-|
   1 + 2 + 3 + 4 + 1 + 2 + 3 + 4 + 1 + 2 + 3 + 4 + 1 + 2 + 3 + 4 +  

G|-----------------------------------------------------------------|
D|-----------------------------------------------------------------|
A|-----------------------------------------------------------------|
E|-----------------------------------------------------------------|
B|-4-4-4-4---4-4-7---7-7---2-2-----4-4-4-4---4-4-0---0-0---2-2-2-2-|
   1 + 2 + 3 + 4 + 1 + 2 + 3 + 4 + 1 + 2 + 3 + 4 + 1 + 2 + 3 + 4 +  

2:40
G|-----------------------------------------------------------------|
D|-----------------------------------------------------------------|
A|-----------------------------------------------------------------|
E|-----------------------------------------------------------------|
B|-4-4-4-4-4-4-4-7---7-7-7-2-2-----4-4-4-4-4-4-4-0---0-0-0-2-2-----|
   1 + 2 + 3 + 4 + 1 + 2 + 3 + 4 + 1 + 2 + 3 + 4 + 1 + 2 + 3 + 4 +  

G|---------------------------------------------------------------------|
D|---------------------------------------------------------------------|
A|---------------------------------------------------------------------|
E|---------------------------------------------------------------------|
B|-4-4-4-4-4-4-4-7---7-7-7-2-2-----4-4-4-4-4-4-4-4-0---0---0---0---2---|
   1 + 2 + 3 + 4 + 1 + 2 + 3 + 4 + 1 + 2 + 3 + 4 + 1 + 2 + 3 + 4 +  

2:55
G|-----------------------------------------------------------------|
D|-----------------------------------------------------------------|
A|-----------------------------------------------------------------|
E|-----------------------------------------------------------------|
B|-4-4---4-4---4-4---7-7---2-2-----4---7p4-7p4-2h4-4-4---4---4-4---|
   1 + 2 + 3 + 4 + 1 + 2 + 3 + 4 + 1 + 2 + 3 + 4 + 1 + 2 + 3 + 4 + 
Tabbed by Dave Vucko

            
            
Suggest correction
Creating personal tab
Creating personal tab
You can edit any tab online and save it as your Personal.

You can edit, replace or remove any tab part or add personal notes – all changes will be seen only by you.

Personal tabs can be accessed anytime from any device, even offline.
Learn more »
Give kudos to tab author, rate the tab!
1 2 3 4 5
comments
print report bad tab
guest
You may want to rate the tab now too:
select rating
Wanna post a correction for this tab? Suggest correction