Oops, an error
Loading. Please wait.
We have an official Hero tab made by UG professional guitarists. Check out the tab »
×
by Skillet
64,643 views 39 this week
no commentswrite comment
1 2 3 4 5
x 4
add to favorites
×
Save as Personal and add changes to this tab that will be seen only by you. Learn more ›
×
You can save this tab as Personal to edit and correct it or add notes. All changes will be seen only by you. Learn more »
launch autoscroll
font size
0
reset
how to read this tab
guitar tuner
backing track
0:00
0:00
edit
Autoscroll
slow
fast
+/-
esc
set tempo
stop
----------------------------------------------------------------------------
                             Hero - Skillet
----------------------------------------------------------------------------
Tabbed by: Joshua Schultze
On: 5/27/2009

This is the new song from Skillet called Hero form their album Awake coming out in August 2009!

   Lead Intro/Lead Chorus: Ben

Db|-----------------------------------------------|
Ab|-7-7-9-9-10-10-9-9----12-12-10-10-9-9----------|
 E|------------------9-9--------------------------| x6 
 B|-----------------------------------------------|
Gb|-----------------------------------------------|                                  
 B|-----------------------------------------------|

   Rhythm Intro: Korey 

Db|------------|-----------------------------------------------|
Ab|------------|-----------------------------------------------|
 E|------------|--------------------------------7------9-------|
 B|---4-4-4-4--|---4------7------2-------4------0-(5x)-0-(5x)--| x2
Gb|---4-4-4-4--|---4-(6x)-7-(6x)-2-(4x)--4-(6x)-5------7-------|
 B|---4-4-4-4--|---4------7------2-------4---------------------|

    Verse: 

Db|-----------------------------------------------------------|                              
Ab|-----------------------------------------------------------|
 E|-----------------------------------------------------------|
 B|-----------------------------------------------------------| x2
Gb|---------5-4---------------------5---5-4-------------------|
 B|-4-4-4-4-----4-4-4-4--4-4-4-4--4---4-----4-4-4-4--4-4-4-4--|
                ^^^^^^^ 
        Don't play 2nd time of 1st verse

    Pre Chorus:

Db|----------------------------------------------------------|                                    
Ab|----------------------------------------------------------|
 E|----------------------------------------------------------|
 B|--9--12--4-4-4------4-4-------9--12--4-4-4------4-4-4--4--|
Gb|--9--12--4-4-4-5-4--4-4--5-4--9--12--4-4-4-5-4--4-4-4--4--|
 B|--9--12--4-4-4------4-4-------9--12--4-4-4------4-4-4--4--|

  Chorus:

Db|-------------------------------------------------|
Ab|-------------------------------------------------|
 E|---------------------------------7------9--------|
 B|---4------7------2--------4------0-(5x)-0-(5x)---| x2
Gb|---4-(6x)-7-(6x)-2-(4x)---4-(6x)-5------7--------|
 B|---4------7------2--------4----------------------|

  Verse 2 (Same as verse 1)

  Pre Chorus 2 (Same as Pre Chorus 1)

  Chorus 2 (Same as Chorus 2)

  Pre Bridge:

Db|---------------------------------------------|
Ab|---------------------------------------------|
 E|---------------------------------------------|
 B|-4-4-4-4-----4-4-4-4-----4-4-4-4-4-4-4-4-----| x2
Gb|-4-4-4-4-----4-4-4-4-----4-4-4-4-4-4-4-4-----|
 B|-4-4-4-4-----4-4-4-4-----4-4-4-4-4-4-4-4-----|
     pm----------------------------slowly let up

  Bridge:

Db|-----------------------------|
Ab|-----------------------------|
 E|-----------------------------|
 B|--9----12----4----7----------| x4
Gb|--9----12----4----7----------|
 B|--9----12----4----7----------|

  Repeat Chorus: 3x
  

  Outro:


Db|----------------------------------------------------|
Ab|----------------------------------------------------|
 E|----------------------------------------------------|
 B|---4------7------2------4-4-7-4-7-4--4-4-4-4-4-4----| 
Gb|---4-(6x)-7-(6x)-2-(4x)-4-4-7-4-7-4--4-4-4-4-4-4----|
 B|---4------7------2------4-4-7-4-7-4--4-4-4-4-4-4----|

Order:

 Intro
 Verse
 Pre Chorus
 Chorus
 Verse 2
 Pre Chorus 2 
 Chorus 2
 Pre Bridge
 Bridge
 Chorus 3
 Outro 

            
            
Suggest correction
Creating personal tab
Creating personal tab
You can edit any tab online and save it as your Personal.

You can edit, replace or remove any tab part or add personal notes – all changes will be seen only by you.

Personal tabs can be accessed anytime from any device, even offline.
Learn more »
comments
print report bad tab
guest
You may want to rate the tab now too:
select rating
Wanna post a correction for this tab? Suggest correction