Oops, an error
Loading. Please wait.

Live Free Or Let Me Die tab

version 1
version 1

Whole song

Interactive

by Skillet
6,450 views 1 this week
1 commentread comment
1 2 3 4 5
2 more votes to show rating
add to favorites
×
Save as Personal and add changes to this tab that will be seen only by you. Learn more ›
×
You can save this tab as Personal to edit and correct it or add notes. All changes will be seen only by you. Learn more »
launch autoscroll
font size
0
reset
how to read this tab
guitar tuner
edit
Autoscroll
slow
fast
+/-
esc
set tempo
stop
----------------------------------------------------------------------------
                             SONG NAME - Band Name
--------------------------------------------------------------------------
Tabbed by: Caleb wIlemon
Email: Cabe310@bellsouth.net

This is what I've Got. Its not 100% but it will do.

Tuning:Drop B

C#|-----------------------------------------------|
G#|-----------------------------------------------|
E |-----------------------------------------------|
B |--0--10h12--0--7h8--0--5h0-7h5h0--7h5--10h8----|
F#|--0--10h12--0--7h8--0--5h0-7h5h0--7h5--10h8----|
B |--0--10h12--0--7h8--0--5h0-7h5h0---------------|

e|---------------------------------------------------------|
B|---------------------------------------------------------|
G|---------------------------------------------------------|
D|--0--10h12--0--7h8--0--88888-10-10-10-10--0--------------|
A|--0--10h12--0--7h8--0--88888-10-10-10-10--0--*let ring---|
E|--0--10h12--0--7h8--0--88888-10 10-10-10--0--------------|

Drums Play alone and then Verse

*This is not a difficult Guitar part, but it is hard to get a feel for if you don't 
listen to the song.

VERSE
e|------------------------------------------------------------|
B|------------------------------------------------------------|
G|------------------------------------------------------------|
D|-00000------------00000----------------8-8--88--10-10--10-10|
A|-00000------------00000----------------8-8--88--10-10--10-10|
E|-00000-0-0--------00000-0-0------------8-8--88--10-10--10-10|
   xxxxx x x        xxxxx x x

                                   "It feels like, It feels like your
e|-------------------------------------------------------------|
B|-------------------------------------------------------------|
G|-------------------------------------------------------------|
D|-00000------------00000----------------8-8--88--10-10--10-10-|
A|-00000------------00000----------------8-8--88--10-10--10-10-|
E|-00000-0-0--------00000-0-0------------8-8--88--10-10--10-10-|
   xxxxx x x        xxxxx x x

  Gasping with all your might"
e|-----------------------------------------------------------------|
B|-----------------------------------------------------------------|
G|-----------------------------------------------------------------|
D|-----------8---8----------8-----8----------5-----5-stop this note|
A|-----------8---8----------8-----8----------5-----5---immeadiatly.|
E|-8-8-8-8-8-8-8-8--8-8-8-8-8-8-8-8--5-5-5-5-5-5-5-5---------------|
   x x x x x   x    x x x x   x x    x x x x   x x

CHORUS
e|---------------------------------------------------------------------|
B|---------------------------------------------------------------------|
G|-7----------------------7------------------------7-------------------|
D|-7--------------5---3---7---------------5---3----7--------------5---3|
A|-5------3h5h3---5---3---5------3h5h3----5---3----5------3h5h3---5---3|
E|-0--0-----------5-5-3---0--0------------5-5-3----0--0-----------5-5-3|
                    x                       x                       x

e|---------------------------------------------------------|
B|---------------------------------------------------------|
G|---------------------------*repeat Chorus twice----------|
D|--8-8-8-8-10-10-10-10----------then go into next riff----|
A|--8-8-8-8-10-10-10-10------------------------------------|
E|--8-8-8-8-10-10-10-10------------------------------------|

Post-Chorus
e|-----------------------------------------------------|
B|-----------------------------------------------------|
G|-----------------------------------------------------|
D|--0--10h12--0--7h8--0--5h0--7h5h0---7h5---10h8-------|
A|--0--10h12--0--7h8--0--5h0--7h5h0---7h5---10h8-------|
E|--0--10h12--0--7h8--0--5h0--7h5h0--------------------|

e|---------------------------------------|
B|---------------------------------------|
G|---------------------------------------| *Repeat from verse
D|--0--10h12--0--7h8--0--5-5---3333------| down before continuing
A|--0--10h12--0--7h8--0--5-5---3333------| 
E|--0--10h12--0--7h8--0--5-5---3333------|
           
BRIDGE                                 
e|------------------------------------------------------------|
B|------------------------------------------------------------|
G|-------------------------------------------------Repeat X1--|
D|-8-8-8-8--8-8-8-8--8-8--0--0--0-0--3-3-3-3------------------|
A|-8-8-8-8--8-8-8-8--8-8--0--0--0-0--3-3-3-3------------------|
E|-8-8-8-8--8-8-8-8--8-8--0--0--0-0--3-3-3-3------------------|

e|------------------------------------------------------------|
B|------------------------------------------------------------|
G|------------------------------------------------------------|
D|---------8-----8---------8-----8--5-------5---5-5-----------|
A|---------8-----8---------8-----8--5-------5---5-5-----------|
E|-8-8-8-8-8-8-8-8-8-8-8-8-8-8-8-8--5-5-5-5-5-5-5-5-----------|
   x x x x   x x   x x x x   x x      x x x   x

Quite part with feed back. come back on "fight"

  "theres nothing left to fight"
e|--------------------------------------------------------|
B|--------------------------------------------------------|
G|--------------------------------------------------------|
D|--------------------------8-8-8-8--10-10-10-10----------|
A|--------------------------8-8-8-8--10-10-10-10----------|
E|--------------------------8-8-8-8--10-10-10-10----------|

e|----------------------------------------------------------------------|R
B|----------------------------------------------------------------------|e
G|---7--------------------7-------------------7-------------------------|p 
D|---7------------5---3---7------------5---3--7------------5---3--888810|e
A|---5-----3h5h3--5---3---5-----3h5h3--5---3--5-----3h5h3--5---3--888810|a
E|---0--0---------5-5-3---0--0---------5-5-3--0---0--------5-5-3--888810|t
                    x                    x                   x

 "nothing left to fight, nothing left to fight (fight) theres nothing left to fight,
e|------------------------------------------------------------|
B|------------------------------------------------------------|
G|------------------------------------------------------------|
D|-----------------8------10-----8------10-----8------10------|Pause and
A|-----------------8--x8--10--x8-8--x8--10--x8-8--x8--10---x8-|come back on 
E|-----------------8------10-----8------10-----8------10------|"die"

  live free or let me die"
e|--------------------------------------------|
B|--------------------------------------------|
G|--------------------------------------------|
D|-0-10h12--0--7h8--0-5h0-7h5h0--7h5--10h8----|
A|-0-10h12--0--7h8--0-5h0-7h5h0--7h5--10h8----|
E|-0-10h12--0--7h8--0-5h0-7h5h0---------------|

e|--------------------------------------------|
B|--------------------------------------------|
G|--------------------------------------------|
D|-0--10h12--0--7h8--0--5--3--0---------------|
A|-0--10h12--0--7h8--0--5--3--0--*let ring----|
E|-0--10h12--0--7h8--0--5--3--0---------------|



| /  slide up
| \  slide down
| h  hammer-on
| p  pull-off
| ~  vibrato
| +  harmonic
| x  Mute note
============================================================================

            
            
Suggest correction
Creating personal tab
Creating personal tab
You can edit any tab online and save it as your Personal.

You can edit, replace or remove any tab part or add personal notes – all changes will be seen only by you.

Personal tabs can be accessed anytime from any device, even offline.
Learn more »
Give kudos to tab author, rate the tab!
1 2 3 4 5
comments
print report bad tab
1 comment total.
-2 reply
Rynocreature777 10 Feb 12, 2009 03:10 PM

you are hearing the bass part when you listen to the song,its not good to tune your guitar that low,you are hearing the bass part

guest
Wanna post a correction for this tab? Suggest correction