Oops, an error
Loading. Please wait.
We have an official Monster tab made by UG professional guitarists. Check out the tab »
×

Monster tab

version 5
version 5

Whole song

Video

by Skillet
18,501 views 1 this week
7 commentsread comments
1 2 3 4 5
x 4
add to favorites
×
Save as Personal and add changes to this tab that will be seen only by you. Learn more ›
×
You can save this tab as Personal to edit and correct it or add notes. All changes will be seen only by you. Learn more »
launch autoscroll
font size
0
reset
how to read this tab
guitar tuner
backing track
0:00
0:00
edit
Autoscroll
slow
fast
+/-
esc
set tempo
stop
Tabber: Synyster595
Artist: Skillet
Song: Monster
Album: Awake
Quick Note: hey i just want to say that i know theres gonna be alot of you out there
thinks this tab is wrong cuz its not fret 5 or fret 8, but trust me on this. i wanted to
this 100% perfect so i did just that, and dont say this is wrong untill you try it out 
your self.
ok heres the tab.

Tuning Drop B

(INTRO 1) (GUITAR 1)-(GUITAR 2 DOES NOT PLAY IN INTRO 1)
C#|------------------------------------------|
G#|------------------------------------------|
E |------------------------------------------|
b |-666-0-0-0--999-0-0-0--666-0-0-0-8/10-6\4-|
F#|-666-0-0-0--999-0-0-0--666-0-0-0-8/10-6\4-|
B |-666-0-0-0--999-0-0-0--666-0-0-0-8/10-6\4-|
          *          *          *

(INTRO 2) (GUITAR 1 & GUITAR 2)
C#|------------------------------------------|
G#|------------------------------------------|
E |------------------------------------------|
b |-666-0-0-0--999-0-0-0--666-0-0-0-8/10-6\4-|
F#|-666-0-0-0--999-0-0-0--666-0-0-0-8/10-6\4-|
B |-666-0-0-0--999-0-0-0--666-0-0-0-8/10-6\4-|
          *          *          *

(VERSE BOTH GUITARS)
C#|------------------------------------------------|
G#|------------------------------------------------|
E |------------------------------------------------|
b |-666-0-0-0--999-0-0-0--666-0-0-0-8/10-6\4-------|
F#|-666-0-0-0--999-0-0-0--666-0-0-0-8/10-6\4-------|
B |-666-0-0-0--999-0-0-0--666-0-0-0-8/10-6\4-------|      x3
          *          *          *
(PRE-CHORUS)
C#|-----------------------------------------------------------------|
G#|-----------------------------------------------------------------|
E |-----------------------------------------------------------------|
b |-666-0-0-0--999-0-0-0--666-0-0-0-9999999999/11111111111111111111-|
F#|-666-0-0-0--999-0-0-0--666-0-0-0-9999999999/11111111111111111111-|
B |-666-0-0-0--999-0-0-0--666-0-0-0-9999999999/11111111111111111111-|
          *          *          *                 (These are 11's)

(CHORUS)
C#|-----------------------------------------------|
G#|-----------------------------------------------|
E |-----------------------------------------------|
b |-00000000-44444444/999999999-8/10-6\4----------|
F#|-00000000-44444444/999999999-8/10-6\4----------|
B |-00000000-44444444/999999999-8/10-6\4----------|         x2

(POST CHORUS)
C#|-----------------------------|
G#|-----------------------------|
E |-----------------------------|
b |-00-0--44-0-99-0--6/8--------|
F#|-00-0--44-0-99-0--6/8--------|
B |-00-0--44-0-99-0--6/8--------|       x2
       *     *    *

(VERSE 2)
C#|------------------------------------------------|
G#|------------------------------------------------|
E |------------------------------------------------|
b |-666-0-0-0--999-0-0-0--666-0-0-0-8/10-6\4-------|
F#|-666-0-0-0--999-0-0-0--666-0-0-0-8/10-6\4-------|
B |-666-0-0-0--999-0-0-0--666-0-0-0-8/10-6\4-------|      x3
          *          *          *
(PRE-CHORUS)
C#|-----------------------------------------------------------------|
G#|-----------------------------------------------------------------|
E |-----------------------------------------------------------------|
b |-666-0-0-0--999-0-0-0--666-0-0-0-9999999999/11111111111111111111-|
F#|-666-0-0-0--999-0-0-0--666-0-0-0-9999999999/11111111111111111111-|
B |-666-0-0-0--999-0-0-0--666-0-0-0-9999999999/11111111111111111111-|
          *          *          *                 (These are 11's)

(CHORUS)
C#|-----------------------------------------------|
G#|-----------------------------------------------|
E |-----------------------------------------------|
b |-00000000-44444444/999999999-8/10-6\4----------|
F#|-00000000-44444444/999999999-8/10-6\4----------|
B |-00000000-44444444/999999999-8/10-6\4----------|         x3

(POST CHORUS)
C#|-----------------------------|
G#|-----------------------------|
E |-----------------------------|
b |-00-0--44-0-99-0--6/8--------|
F#|-00-0--44-0-99-0--6/8--------|
B |-00-0--44-0-99-0--6/8--------|       x2
       *     *    *

(BRIDGE PART 1)
C#|-------------------------------------------------------------------------|
G#|-------------------------------------------------------------------------|
E |----------------------------66666666-------------------------------------|
b |-66666666-00000000-44444444-66666666-66666666-00000000-88888888-8/10-6\4-|
F#|-66666666-00000000-44444444-44444444-66666666-00000000-88888888-8/10-6\4-|
B |-66666666-00000000-44444444----------66666666-00000000-88888888-8/10-6\4-|

(BRIGDE PART 2)
C#|-----------------------------|
G#|-----------------------------|
E |-88888888/1010101010/11111111
b |-88888888/1010101010/11111111
F#|-66666666/888888888/999999999
B |-----------------------------


(CHORUS)
C#|-----------------------------------------------|
G#|-----------------------------------------------|
E |-----------------------------------------------|
b |-00000000-44444444/999999999-8/10-6\4----------|
F#|-00000000-44444444/999999999-8/10-6\4----------|
B |-00000000-44444444/999999999-8/10-6\4----------|         x4


(POST CHORUS)
C#|-----------------------------|
G#|-----------------------------|
E |-----------------------------|
b |-00-0--44-0-99-0--6/8--------|
F#|-00-0--44-0-99-0--6/8--------|
B |-00-0--44-0-99-0--6/8--------|       x2
       *     *    *               (you've got some sudden stops the first 2 times
then its just normal POST CHORUS


* =PALM MUTE
/ =SLIDE DOWN
\ =SLIDE UP

ANY QUESTIONS OR CORRECTIONS EMAIL ME AT
synyster595@gmail.com

            
            
Suggest correction
Creating personal tab
Creating personal tab
You can edit any tab online and save it as your Personal.

You can edit, replace or remove any tab part or add personal notes – all changes will be seen only by you.

Personal tabs can be accessed anytime from any device, even offline.
Learn more »
comments
print report bad tab
7 comments total. Showing first comments.
+1 reply
sumrandomhobo 534 Aug 06, 2009 02:43 PM

I haven't got my guitar in Drob B, but from playing it by itself it Drop D it sounds pretty wack lol...

0 reply
synyster595 156 Aug 09, 2009 10:30 AM

well there's also a way to play it in drop D, just go up the scale, instead of 6 and 9 play on 3 and 6, you basically for Drop D all you gotta do is go up either 3 for 4 fret and you've got the song

0 reply
GuitarWiz101 58 Aug 10, 2009 08:44 PM

ok so you are absolutely right for one, but there are some adjustments that are needed. but dude you have the right idea for sure! tho everyone look up Monster 12 AUG 2009 or 13th for official tabs!!

guest
You may want to rate the tab now too:
select rating
Wanna post a correction for this tab? Suggest correction