Oops, an error
Loading. Please wait.
We have an official Monster tab made by UG professional guitarists. Check out the tab »
×

Monster tab

version 6
version 6

Whole song

Video

by Skillet
20,385 views 21 this week
12 commentsread comments
1 2 3 4 5
x 7
add to favorites
×
Save as Personal and add changes to this tab that will be seen only by you. Learn more ›
×
You can save this tab as Personal to edit and correct it or add notes. All changes will be seen only by you. Learn more »
launch autoscroll
font size
0
reset
how to read this tab
guitar tuner
backing track
0:00
0:00
edit
Autoscroll
slow
fast
+/-
esc
set tempo
stop
wuzup, this i present to you Monster by Skillet. This is in drop B i know and the actual song is
in drop C. but in skillets first performance, Ben had his guitar in drop B and he does just as i
have typed down. Its accurate i promise. other tabs dont have the kind of precision.

i have a youtube vid of me sort of explaining how to play and i do play. i made it 
ago...but it works
Just type: IRockUtube101 Monster - should be the first one - by IRockUtube101
also email me at: irockutube101@gmail.com - for any questions!
www.wix.com/IRockUtube101/IRockUtube101

so here you go! i hope this works out for you :)


Intro:

C#[---------------------------------------------------------------------------]
G#[---------------------------------------------------------------------------]
 E[---------------------------------------------------------------------------]
 B[--6|6p5-1-1|1--9|9p5-1-1|1--6|6p5-1-1|1-8-11-6-4---------------------------]
F#[--6|6p5-1-1|1--9|9p5-1-1|1--6|6p5-1-1|1-8-11-6-4---------------------------]
 B[--6|6p5-1-1|1--9|9p5-1-1|1--6|6p5-1-1|1-8-11-6-4---------------------------]


C#[----------------------------------------------------------------------]
G#[----------------------------------------------------------------------]
 E[----------------------------------------------------------------------]
 B[--6|6p5-1-1|1--9|9p5-1-1|1--6|6p5-1-1|1-8-11-6-4----------------------]
F#[--6|6p5-1-1|1--9|9p5-1-1|1--6|6p5-1-1|1-8-11-6-4----------------------]
 B[--6|6p5-1-1|1--9|9p5-1-1|1--6|6p5-1-1|1-8-11-6-4----------------------]


Verse 1:

C#[----------------------------------------------------------------------]
G#[----------------------------------------------------------------------]
 E[----------------------------------------------------------------------]
 B[--6|6p5-1-1|1--9|9p5-1-1|1--6|6p5-1-1|1-8-11-6-4----------------------]
F#[--6|6p5-1-1|1--9|9p5-1-1|1--6|6p5-1-1|1-8-11-6-4----------------------]
 B[--6|6p5-1-1|1--9|9p5-1-1|1--6|6p5-1-1|1-8-11-6-4----------------------]


C#[----------------------------------------------------------------------]
G#[----------------------------------------------------------------------]
 E[----------------------------------------------------------------------]
 B[--6|6p5-1-1|1--9|9p5-1-1|1--6|6p5-1-1|1-8-11-6-4----------------------]
F#[--6|6p5-1-1|1--9|9p5-1-1|1--6|6p5-1-1|1-8-11-6-4----------------------]
 B[--6|6p5-1-1|1--9|9p5-1-1|1--6|6p5-1-1|1-8-11-6-4----------------------]


C#[----------------------------------------------------------------------]
G#[----------------------------------------------------------------------]
 E[----------------------------------------------------------------------]
 B[--6|6p5-1-1|1--9|9p5-1-1|1--6|6p5-1-1|1-8-11-6-4----------------------]
F#[--6|6p5-1-1|1--9|9p5-1-1|1--6|6p5-1-1|1-8-11-6-4----------------------]
 B[--6|6p5-1-1|1--9|9p5-1-1|1--6|6p5-1-1|1-8-11-6-4----------------------]


PreChorus Tab:

C#[-------------------------------------------------------------------------------]
G#[-------------------------------------------------------------------------------]
 E[-------------------------------------------------------------------------------]
 B[--6|6p5-1-1|1--9|9p5-1-1|1--6|6p5-1-1|1-9|9|9|9-11|11|11|11/1------------------]
F#[--6|6p5-1-1|1--9|9p5-1-1|1--6|6p5-1-1|1-9|9|9|9-11|11|11|11/1------------------]
 B[--6|6p5-1-1|1--9|9p5-1-1|1--6|6p5-1-1|1-9|9|9|9-11|11|11|11/1------------------]


Chorus:

Guitar 1:
C#[---------------------------------------------------------------------------------]
G#[---------------------------------------------------------------------------------]
 E[---------------------------------------------------------------------------------]
 B[-1|1|1|1|1|1|1|1-4|4|4|4|4|4|4|4-9|9|9|9|9|9|9|9-8-11-6-4------------------------]
F#[-1|1|1|1|1|1|1|1-4|4|4|4|4|4|4|4-9|9|9|9|9|9|9|9-8-11-6-4------------------------]
 B[-1|1|1|1|1|1|1|1-4|4|4|4|4|4|4|4-9|9|9|9|9|9|9|9-8-11-6-4------------------------]

C#[---------------------------------------------------------------------------------]
G#[---------------------------------------------------------------------------------]
 E[---------------------------------------------------------------------------------]
 B[-1|1|1|1|1|1|1|1-4|4|4|4|4|4|4|4-9|9|9|9|9|9|9|9-8-11-6-4------------------------]
F#[-1|1|1|1|1|1|1|1-4|4|4|4|4|4|4|4-9|9|9|9|9|9|9|9-8-11-6-4------------------------]
 B[-1|1|1|1|1|1|1|1-4|4|4|4|4|4|4|4-9|9|9|9|9|9|9|9-8-11-6-4------------------------]

Guitar 2: (Clean - While Guitar 1 is playing)
C#[---------------15-------------------]
G#[-17----15---------------------------]
 E[------------------------------------]
 B[------------------------------------]
F#[------------------------------------]
 B[------------------------------------]

C#[---------------15-------------------]
G#[-17----15---------------------------]
 E[------------------------------------]
 B[------------------------------------]
F#[------------------------------------]
 B[------------------------------------]

Guitar 1:
C#[----------------------------------------------------------------------------]
G#[----------------------------------------------------------------------------]
 E[----------------------------------------------------------------------------]
 B[-1|1-1-4|4-4-9-9-6-8-1|1-1-4|4-4-9-9-6-8------------------------------------]
F#[-1|1-1-4|4-4-9-9-6-8-1|1-1-4|4-4-9-9-6-8------------------------------------]
 B[-1|1-1-4|4-4-9-9-6-8-1|1-1-4|4-4-9-9-6-8------------------------------------]

Verse 2: (Intro)

C#[----------------------------------------------------------------------]
G#[----------------------------------------------------------------------]
 E[----------------------------------------------------------------------]
 B[--6|6p5-1-1|1--9|9p5-1-1|1--6|6p5-1-1|1-8-11-6-4----------------------]
F#[--6|6p5-1-1|1--9|9p5-1-1|1--6|6p5-1-1|1-8-11-6-4----------------------]
 B[--6|6p5-1-1|1--9|9p5-1-1|1--6|6p5-1-1|1-8-11-6-4----------------------]


C#[----------------------------------------------------------------------]
G#[----------------------------------------------------------------------]
 E[----------------------------------------------------------------------]
 B[--6|6p5-1-1|1--9|9p5-1-1|1--6|6p5-1-1|1-8-11-6-4----------------------]
F#[--6|6p5-1-1|1--9|9p5-1-1|1--6|6p5-1-1|1-8-11-6-4----------------------]
 B[--6|6p5-1-1|1--9|9p5-1-1|1--6|6p5-1-1|1-8-11-6-4----------------------]


PreChorus Tab:

C#[--------------------------------------------------------------------------]
G#[--------------------------------------------------------------------------]
 E[--------------------------------------------------------------------------]
 B[--6|6p5-1-1|1--9|9p5-1-1|1--6|6p5-1-1|1-9|9|9|9-11|11|11|11---------------]
F#[--6|6p5-1-1|1--9|9p5-1-1|1--6|6p5-1-1|1-9|9|9|9-11|11|11|11---------------]
 B[--6|6p5-1-1|1--9|9p5-1-1|1--6|6p5-1-1|1-9|9|9|9-11|11|11|11---------------]


Chorus:

Guitar 1:
C#[-------------------------------------------------------------------------------]
G#[-------------------------------------------------------------------------------]
 E[-------------------------------------------------------------------------------]
 B[-1|1|1|1|1|1|1|1-4|4|4|4|4|4|4|4-9|9|9|9|9|9|9|9-8-11-6-4----------------------]
F#[-1|1|1|1|1|1|1|1-4|4|4|4|4|4|4|4-9|9|9|9|9|9|9|9-8-11-6-4----------------------]
 B[-1|1|1|1|1|1|1|1-4|4|4|4|4|4|4|4-9|9|9|9|9|9|9|9-8-11-6-4----------------------]

C#[-------------------------------------------------------------------------------]
G#[-------------------------------------------------------------------------------]
 E[-------------------------------------------------------------------------------]
 B[-1|1|1|1|1|1|1|1-4|4|4|4|4|4|4|4-9|9|9|9|9|9|9|9-8-11-6-4----------------------]
F#[-1|1|1|1|1|1|1|1-4|4|4|4|4|4|4|4-9|9|9|9|9|9|9|9-8-11-6-4----------------------]
 B[-1|1|1|1|1|1|1|1-4|4|4|4|4|4|4|4-9|9|9|9|9|9|9|9-8-11-6-4----------------------]

C#[-------------------------------------------------------------------------------]
G#[-------------------------------------------------------------------------------]
 E[-------------------------------------------------------------------------------]
 B[-1|1|1|1|1|1|1|1-4|4|4|4|4|4|4|4-9|9|9|9|9|9|9|9-8-11-6-4----------------------]
F#[-1|1|1|1|1|1|1|1-4|4|4|4|4|4|4|4-9|9|9|9|9|9|9|9-8-11-6-4----------------------]
 B[-1|1|1|1|1|1|1|1-4|4|4|4|4|4|4|4-9|9|9|9|9|9|9|9-8-11-6-4----------------------]

Guitar 2: (Clean - While Guitar 1 is playing)
C#[---------------15-------------------]
G#[-17----15---------------------------]
 E[------------------------------------]
 B[------------------------------------]
F#[------------------------------------]
 B[------------------------------------]

C#[---------------15-------------------]
G#[-17----15---------------------------]
 E[------------------------------------]
 B[------------------------------------]
F#[------------------------------------]
 B[------------------------------------]

C#[---------------15-------------------]
G#[-17----15---------------------------]
 E[------------------------------------]
 B[------------------------------------]
F#[------------------------------------]
 B[------------------------------------]

Guitar 1:
C#[----------------------------------------------------------------------------]
G#[----------------------------------------------------------------------------]
 E[----------------------------------------------------------------------------]
 B[-1|1-1-4|4-4-9-9-6-8-1|1-1-4|4-4-9-9-6-8------------------------------------]
F#[-1|1-1-4|4-4-9-9-6-8-1|1-1-4|4-4-9-9-6-8------------------------------------]
 B[-1|1-1-4|4-4-9-9-6-8-1|1-1-4|4-4-9-9-6-8------------------------------------]


Bridge:

Guitar 1:
C#[---------------------------------------------------------------------------]
G#[---------------------------------------------------------------------------]
 E[---------------------------------------------------------------------------]
 B[-6|6|6|6|6|6|6|6-1|1|1|1|1|1|1|1-4|4|4|4|4|4|4|4-11|11|11|11|11|11|11|11---]
F#[-6|6|6|6|6|6|6|6-1|1|1|1|1|1|1|1-4|4|4|4|4|4|4|4-11|11|11|11|11|11|11|11---]
 B[-6|6|6|6|6|6|6|6-1|1|1|1|1|1|1|1-4|4|4|4|4|4|4|4-11|11|11|11|11|11|11|11---]

C#[-----------------------------------------------------------------------------]
G#[-----------------------------------------------------------------------------]
 E[-----------------------------------------------------------------------------]
 B[-6|6|6|6|6|6|6|6-1|1|1|1|1|1|1|1-8|8|8|8|8|8|8-8-11-6-4----------------------]
F#[-6|6|6|6|6|6|6|6-1|1|1|1|1|1|1|1-8|8|8|8|8|8|8-8-11-6-4----------------------]
 B[-6|6|6|6|6|6|6|6-1|1|1|1|1|1|1|1-8|8|8|8|8|8|8-8-11-6-4----------------------]


C#[--------------------------------------------------------------------------]
G#[--------------------------------------------------------------------------]
 E[-8|8|8|8|8|8|8|8-11|11|11|11|11|11|11|11-16|16|16|16|16|16|16|16----------]
 B[-8|8|8|8|8|8|8|8-11|11|11|11|11|11|11|11-16|16|16|16|16|16|16|16----------]
F#[-6|6|6|6|6|6|6|6-9-|9-|9-|9-|9-|9-|9-|9--14|14|14|14|14|14|14|14----------]
 B[--------------------------------------------------------------------------]

“FEEL LIKE A MONSTER”


Chorus:

Guitar 1:
C#[-------------------------------------------------------------------------------]
G#[-------------------------------------------------------------------------------]
 E[-------------------------------------------------------------------------------]
 B[-1|1|1|1|1|1|1|1-4|4|4|4|4|4|4|4-9|9|9|9|9|9|9|9-8-11-6-4----------------------]
F#[-1|1|1|1|1|1|1|1-4|4|4|4|4|4|4|4-9|9|9|9|9|9|9|9-8-11-6-4----------------------]
 B[-1|1|1|1|1|1|1|1-4|4|4|4|4|4|4|4-9|9|9|9|9|9|9|9-8-11-6-4----------------------]


C#[-------------------------------------------------------------------------------]
G#[-------------------------------------------------------------------------------]
 E[-------------------------------------------------------------------------------]
 B[-1|1|1|1|1|1|1|1-4|4|4|4|4|4|4|4-9|9|9|9|9|9|9|9-8-11-6-4----------------------]
F#[-1|1|1|1|1|1|1|1-4|4|4|4|4|4|4|4-9|9|9|9|9|9|9|9-8-11-6-4----------------------]
 B[-1|1|1|1|1|1|1|1-4|4|4|4|4|4|4|4-9|9|9|9|9|9|9|9-8-11-6-4----------------------]

C#[-------------------------------------------------------------------------------]
G#[-------------------------------------------------------------------------------]
 E[-------------------------------------------------------------------------------]
 B[-1|1|1|1|1|1|1|1-4|4|4|4|4|4|4|4-9|9|9|9|9|9|9|9-8-11-6-4----------------------]
F#[-1|1|1|1|1|1|1|1-4|4|4|4|4|4|4|4-9|9|9|9|9|9|9|9-8-11-6-4----------------------]
 B[-1|1|1|1|1|1|1|1-4|4|4|4|4|4|4|4-9|9|9|9|9|9|9|9-8-11-6-4----------------------]

Guitar 2: (Clean - While Guitar 1 is playing)
C#[---------------15-------------------]
G#[-17----15---------------------------]
 E[------------------------------------]
 B[------------------------------------]
F#[------------------------------------]
 B[------------------------------------]

C#[---------------15-------------------]
G#[-17----15---------------------------]
 E[------------------------------------]
 B[------------------------------------]
F#[------------------------------------]
 B[------------------------------------]

C#[---------------15-------------------]
G#[-17----15---------------------------]
 E[------------------------------------]
 B[------------------------------------]
F#[------------------------------------]
 B[------------------------------------]

Guitar 1:
C#[----------------------------------------------------------------------------]
G#[----------------------------------------------------------------------------]
 E[----------------------------------------------------------------------------]
 B[-1|1-1-4|4-4-9-9-6-8-1|1-1-4|4-4-9-9-6-8------------------------------------]
F#[-1|1-1-4|4-4-9-9-6-8-1|1-1-4|4-4-9-9-6-8------------------------------------]
 B[-1|1-1-4|4-4-9-9-6-8-1|1-1-4|4-4-9-9-6-8------------------------------------]

C#[----------------------------------------------------------------------------]
G#[----------------------------------------------------------------------------]
 E[----------------------------------------------------------------------------]
 B[-1|1-1-4|4-4-9-9-6-8-1|1-1-4|4-4-9-9-6-4------------------------------------]
F#[-1|1-1-4|4-4-9-9-6-8-1|1-1-4|4-4-9-9-6-4------------------------------------]
 B[-1|1-1-4|4-4-9-9-6-8-1|1-1-4|4-4-9-9-6-4------------------------------------]

and there is the end... ENJOY!

remember! any questions just contact irockutube101@gmail.com

            
            
Suggest correction
Creating personal tab
Creating personal tab
You can edit any tab online and save it as your Personal.

You can edit, replace or remove any tab part or add personal notes – all changes will be seen only by you.

Personal tabs can be accessed anytime from any device, even offline.
Learn more »
comments
print report bad tab
12 comments total. Showing first comments.
0 reply
OSU 30 Aug 13, 2009 02:22 PM

Great tab! You got it down perfect! Excellent job!

0 reply
GuitarWiz101 58 Aug 13, 2009 02:35 PM

Hey thanks. I have a video on YouTube if you are confused how it may be played. (tho sorry there are no words just me playing). http://www.youtube.com/watch?v=ZqyS11UuQcQ

0 reply
skilletman 31 Aug 15, 2009 06:40 AM

in the videos he does that but not in all i saw one where he obviously plays it in drop c the other tabs are right but need to be tuned differently

guest
You may want to rate the tab now too:
select rating
Wanna post a correction for this tab? Suggest correction