Oops, an error
Loading. Please wait.

Rest bass

by Skillet
738 views 1 this week
no commentswrite comment
1 2 3 4 5
3 more votes to show rating
add to favorites
×
Save as Personal and add changes to this tab that will be seen only by you. Learn more ›
×
You can save this tab as Personal to edit and correct it or add notes. All changes will be seen only by you. Learn more »
launch autoscroll
font size
0
reset
guitar tuner
edit
Autoscroll
slow
fast
+/-
esc
set tempo
stop
Author
Difficulty
-----------------------------------------------------------------------------
                             REST - Skillet
-----------------------------------------------------------------------------

Tabbed By : Endophilus
e-mail: sprocketmaster@juno.com

Tuning: Standard tuning

The bass line for the intro, verses, and bridge are pretty straightforward.  
The chorus is very active, and between the guitars, bass, 
and synthesizers it's difficult to tell who's playing what notes.  
Once you get the feel of it you can try different variations or do whatever.   
If you figure it out, please let me know so I can edit this.  


Enjoy!


4/4 time


Intro

G|--------|--------|---------|--------|
D|--------|--------|---------|--------|
A|-5------|-(5)----|-2-------|--------|  x2
E|--------|--------|---------|-3------|  


Verse

G|--------|--------|---------|--------|
D|--------|--------|---------|--------|
A|-5------|-(5)----|-2-------|--------|  x2
E|--------|--------|---------|-3------| 

G|--------|--------|---------|--------|--------|--------|--------|--------|
D|--------|--------|---------|--------|--------|--------|--------|--------|
A|-5------|-(5)----|-2-------|--------|--------|--------|--------|--------|
E|--------|--------|---------|-3------|-5------|-(5)----|-3------|-(3)----|


Chorus

    1  &  2  &  3  &  4  &     1  &  2  &  3  &  4  &  
G|-----------------------7--|-----7--------------------|
D|------------4-5-----5-----|--------------------------|
A|--------5-----------------|--------5--x--------5-----|
E|--3-----------------------|--------------------------|


    1  &  2  &  3  &  4  &     1  &  2  &  3  &  4  &   
G|--------------------------|--------------------------|
D|--7-----7-----------7-----|-/9--9--------9-----------|
A|--------------------------|-----------9--------9\----| x3
E|--------------------------|--------------------------|


    1  &  2  &  3  &  4  &     1  &  2  &  3  &  4  &   
G|--------------------------|--------------------------|
D|--7-----------7-----------|-----7x-------7-----7-----|
A|-----7x----------7x-------|--7--------7--------------|
E|--------------------------|--------------------------|



Break

G|--------|--------|---------|--------|
D|--------|--------|---------|--------|
A|-5------|-(5)----|-2-------|--------|  
E|--------|--------|---------|-3------|



Verse (same as 1st)

G|---------|---------|---------|---------|
D|---------|---------|---------|---------|
A|-5-5-5-5-|-5-5-5-5-|-2-2-2-2-|---------|  x2
E|---------|---------|---------|-3-3-3-3-| 

G|---------|---------|---------|---------|---------|---------|---------|---------|
D|---------|---------|---------|---------|---------|---------|---------|---------|
A|-5-5-5-5-|-5-5-5-5-|-2-2-2-2-|---------|---------|---------|---------|---------|
E|---------|---------|---------|-3-3-3-3-|-5-5-5-5-|-5-5-5-5-|-3-3-3-3-|-3-3-3-3-|



Chorus  (same)

    1  &  2  &  3  &  4  &     1  &  2  &  3  &  4  &  
G|-----------------------7--|-----7--------------------|
D|------------4-5-----5-----|--------------------------|
A|--------5-----------------|--------5--x--------5-----|
E|--3-----------------------|--------------------------|


    1  &  2  &  3  &  4  &     1  &  2  &  3  &  4  &   
G|--------------------------|--------------------------|
D|--7-----7-----------7-----|-/9--9--------9-----------|
A|--------------------------|-----------9--------9\----| x3
E|--------------------------|--------------------------|




    1  &  2  &  3  &  4  &     1  &  2  &  3  &  4  &   
G|--------------------------|--------------------------|
D|--7-----------7-----------|-----7x-------7-----7-----|
A|-----7x----------7x-------|--7--------7-----7--------|
E|--------------------------|--------------------------|



Bridge

G|---------|---------|---------|---------|      
D|---------|---------|---------|---------|      
A|---------|-5-5-5-5-|---------|---------| x3   
E|-3-3-3-3-|---------|-7-7-7-7-|-5-5-5-5-|      

G|---------|---------|---------|---------|      
D|---------|-------4-|-5-5-5-5-|-5-5-5-4-|     
A|---------|---------|---------|---------|   
E|-3-3-3-3-|-3-3-3---|---------|---------|


Break (Synth Solo)

G|--------|--------|---------|--------|
D|--------|--------|---------|--------|
A|-5------|-(5)----|-2-------|--------| x2 
E|--------|--------|---------|-3------|


Chorus x3

First chorus is the same, but the 2nd has a slightly different ending.


2nd:

    1  &  2  &  3  &  4  &     1  &  2  &  3  &  4  &   
G|--------------------------|--------------------------|
D|--7-----------7-----------|--7-----------7-----------|
A|-----7x----7-----7x----7--|-----7x----7-----7--------|
E|--------------------------|--------------------------|


3rd chorus is normal, and then fade out.

Key:

| /  slide up
| \  slide down
| x  Mute note
===============================================================================

            
            
Suggest correction
Creating personal tab
Creating personal tab
You can edit any tab online and save it as your Personal.

You can edit, replace or remove any tab part or add personal notes – all changes will be seen only by you.

Personal tabs can be accessed anytime from any device, even offline.
Learn more »
Give kudos to tab author, rate the tab!
1 2 3 4 5
comments
print report bad tab
guest
You may want to rate the tab now too:
select rating
Wanna post a correction for this tab? Suggest correction