Oops, an error
Loading. Please wait.

Savior solo tab

version 1
version 1

Solo

Interactive

by Skillet
1,849 views 3 this week
1 commentread comment
1 2 3 4 5
3 more votes to show rating
add to favorites
×
Save as Personal and add changes to this tab that will be seen only by you. Learn more ›
×
You can save this tab as Personal to edit and correct it or add notes. All changes will be seen only by you. Learn more »
launch autoscroll
font size
0
reset
how to read this tab
guitar tuner
edit
Autoscroll
slow
fast
+/-
esc
set tempo
stop
This is the LIVE solo by Ben Kasica at the end of their awesome song Savior. Hope you 
it!
questions: irockutube101@gmail.com
IRockUtube101 is my youtube page, i'll post a video of me playing it. Soon I will have 
Inside into
on here, so keep checking to see if it's up!! :)

This song, as you all should already know, is in Drop D.

Guitar 1:
[------------------------------------]
[------------------------------------]
[-7-7-7-5-5-5-10--10--14-12----12----]
[--7-7-7-7-7-7--10--10-----9-12--12/-]
[------------------------------------]
[------------------------------------]

[--------8---11---13---15-]
[-10--8--x----x----x----x-]
[--x--x--5----8---10---12-] - These repeat a lot and fast. just a waste to put it all down
[--7--5-------------------] - but you can figure it out :) the song is on youtube
[-------------------------] - Skillet Savior LIVE
[-------------------------]

so i hope you liked it!! i was really excited when i figured it out, and now your turn :)

            
            
Suggest correction
Creating personal tab
Creating personal tab
You can edit any tab online and save it as your Personal.

You can edit, replace or remove any tab part or add personal notes – all changes will be seen only by you.

Personal tabs can be accessed anytime from any device, even offline.
Learn more »
Give kudos to tab author, rate the tab!
1 2 3 4 5
comments
print report bad tab
1 comment total.
0 reply
murallafacudiaz 953 Oct 08, 2016 01:06 PM

Hey dude, I play it like this and I think is more accurate

[-----------------5------------------]
[-------------6-6-----8--8-----------]
[-7-7-7-5-5-5-----------7-7----------]
[--7-7-7-7-7-7-7-7-7---9-------------]
[------------------------------------]
[------------------------------------]

And that quick part at the end:

[------------------------------------]
[------------------------------------]
[---9----7----14---17---19--21-------]
[------------------------------------]
[---7----5----12---15---17--19-------]
[------------------------------------]

And then just opens. Give it a try :) and I know Ben slides during the first part of the solo, but it's easier just keeping the same position. Good luck

guest
You may want to rate the tab now too:
select rating
Wanna post a correction for this tab? Suggest correction