Oops, an error
Loading. Please wait.

Say Goodbye bass

by Skillet
3,404 views 1 this week
no commentswrite comment
1 2 3 4 5
1 last vote to show rating
add to favorites
×
Save as Personal and add changes to this tab that will be seen only by you. Learn more ›
×
You can save this tab as Personal to edit and correct it or add notes. All changes will be seen only by you. Learn more »
launch autoscroll
font size
0
reset
guitar tuner
edit
Autoscroll
slow
fast
+/-
esc
set tempo
stop
So I guess I'm the only one making Skillet Bass tabs but whatever

Piano Intro
Piano and Guitar play Verse one

Bass starts at Pre-Chorus with

G|-----------|
D|-----------|
A|-----------|
E|-1-1-1-1-1-|

Chorus

G|-------------------|----------------------------------------------|
D|-------------------|----------------------------------------------|
A|-------------------|----------------------------------------------|
E|-------------0----3|------1---------------------------------0----3|
  Don't say goodbye   Cause I don't wanna hear those words tonight

|--------------------------------------------|----------------------|
|------------------------------------------2-|----------------------|
|--------------------------------------------|----------------------|
|------1-------------------------------------|-------3--------------|
 Cause maybe it's not the end for you and I   And although we knew

|-------------------------------------|2---------------------------|
|-------------------------------------|----------------------------|
|-------------------------------------|----------------------------|
|------1------------------------------|---------------------------1|
 This time would come for me and you   Don't say anything tonight

|-----------------------------|
|-----------------------------|
|-----------------------------|
|-----------------------------|
 If you're gonna say goodbye

Riff 1

|-----------2---------|
|----------------2----|
|---------------------|
|-0----3------------3-|

Verse 2

|-----------------|-------------|--------------------------------|
|--------2--------|-------------|--------------------------------|
|-----------------|-------------|--------------------------------|
|0----------------|-----3-------|-----1----------------------0---|
 Do you remember   In December   How we swore we'd never change

|----------------------------|-------------------|--------------------------|
|--------------------2-------|-------------------|------------------------2-|
|----------------------------|-------------------|--------------------------|
|----------------------------|----------3--------|--------1-----------------|
 Even though you're leaving   That our feelings   Would always stay the same

|-----------------------------|--------------------------------|
|-----------------------------|--------------------------------|
|-----------------------------|--------------------------------|
|------------3-------------1--|--------------0-----------------|
 I wish we could be laughing   Instead I'm standing here asking

|2---------------------------|-----------------------------|
|----------------------------|-----------------------------|
|----------------------------|-----------------------------|
|----------------------------|1----------------------------|
 Do we have to end this now   Can we make it last somehow

|2---------------------------------------------|
|----------------------------------------------|
|----------------------------------------------|
|----------------------------------------------|
 We both know what we've gotta say, not today

|------------------------------------|
|------------------------------------|
|------------------------------------|
|1-----------------------------------|
 Cause I don't wanna leave this way

Pre-Chorus x1
Chorus x1

Bridge

|---------------------|----------------------------------------|
|-2-------------------|-2--------------------------------------|
|---------------------|----------------------------------------|
|---0-0---------------|---0-0----------------------------------|
      And if it's over      It hurts but I'm giving you my word

|------------------------------|
|-2----------------------------|
|------------------------------|
|---0-0------------------------|
      I hope that you're always

|2-----------------|2-----------------|
|-----------2------|-----------2------|
|------------------|------------------|
|------------------|------------------|
 Happy like we were Happy like we were

Riff Two

|---------------|
|-------2-------|
|---------------|
|-1--3-----0--0-|

Chorus x1

Outro

|------------------------------------------------------2-|
|------2-------------------------------------------------|
|--------------------------------------------------------|
|-----------------------3--------------------------------|
 Yesterday we were laughing (if you're gonna say goodbye)


|--------------------------------------------------------|
|------------2-------------------------------------------|
|--------------------------------------------------------|
|---------------------------3--------------------------0-|
 Today I'm left here asking (if you're gonna say goodbye)

|----------------------------------------------2---------|
|-----2--------------------------------------------------|
|--------------------------------------------------------|
|---------------------------3----------------------------|
 And although we knew this time would come for me and you

|--------------------------|----------------------------2|
|--------------------------|-----------------------------|
|2-------------------------|-----------------------------|
|--------------------------|3----------------------------|
 Don't say anything tonight If you're gonna say goodbye

|-2----------------------2-|
|------2-------------------|
|-----------2-------2------|
|----------------0---------|

            
            
Suggest correction
Creating personal tab
Creating personal tab
You can edit any tab online and save it as your Personal.

You can edit, replace or remove any tab part or add personal notes – all changes will be seen only by you.

Personal tabs can be accessed anytime from any device, even offline.
Learn more »
Give kudos to tab author, rate the tab!
1 2 3 4 5
comments
print report bad tab
guest
You may want to rate the tab now too:
select rating
Wanna post a correction for this tab? Suggest correction