Oops, an error
Loading. Please wait.

Shouldve When You Couldve tab

version 1
version 1

Whole song

by Skillet
9,381 views 6 this week
6 commentsread comments
1 2 3 4 5
x 6
add to favorites
×
Save as Personal and add changes to this tab that will be seen only by you. Learn more ›
×
You can save this tab as Personal to edit and correct it or add notes. All changes will be seen only by you. Learn more »
launch autoscroll
font size
0
reset
how to read this tab
guitar tuner
edit
Autoscroll
slow
fast
+/-
esc
set tempo
stop
Artist: Skillet
Song: Should've When You Could've
Album: Awake
Tabber: Wade "Synyster595"

Drop C (Quick Note: Skillet's songs are in Drop C but when their live Ben drops in down 
Drop B
so just remember this, if you don't want to play it in Drop C and you want to play it in 
B do this
"Go down 1 fret" (Like instead of Fret 5 for Drop C
use Fret 6 for Drop B)

Worked on this song for like a few days and finally got it so hope all you guitar freaks
are like me,
have fun with it.


~ = Vibrato
* = Let Ring
h = Hammer On
p = Pull off
/ = Slide Down
\ = Slide Up
^ = Palm Mute

"Intro""Lead Guitar"
D|---------------------------|
A|---------------------------|
F|--7/9\7-7/11\7-7\6/7-7/9\7-|    x3
C|-0-----0------0-----0------|
G|---------------------------|
C|---------------------------|

"Intro""Rhythm Guitar"
D|----------------------------|
A|----------------------------|
F|-7777-----------------------|     x2
C|-7777-7777-5555-7777-7------|
G|-5555-7777-5555-7777-7------|
C|------7777-5555-7777-7------|

No Guitar In Verse or 1st Pre-Chorus

"Chorus""Both Guitars"
D|------------------------------------------------------------------------------------|
A|------------------------------------------------------------------------------------|
F|-7777----------------7777--------------7777-----------------------------------------|
C|-7777-7777-5555-7777-7777-7777\55-5/77-7777-7777-5555-7777-9999-7777\55-5-5555-7777-|
G|-5555-7777-5555-7777-5555-7777\55-5/77-5555-7777-5555-7777-9999-7777\55-5-5555-7777-|
C|------7777-5555-7777------7777\55-5/77------7777-5555-7777-9999-7777\55-5-5555-7777-|

Intro same, no Verse

"Pre-Chorus"
D|-------|
A|-------|
F|-------|
C|-77777-|
G|-77777-|
C|-77777-|
   ^^^^^

"Chorus""Both Guitars"
D|------------------------------------------------------------------------------------|
A|------------------------------------------------------------------------------------|
F|-7777----------------7777--------------7777-----------------------------------------|
C|-7777-7777-5555-7777-7777-7777\55-5/77-7777-7777-5555-7777-9999-7777\55-5-5555-7777-|
G|-5555-7777-5555-7777-5555-7777\55-5/77-5555-7777-5555-7777-9999-7777\55-5-5555-7777-|
C|------7777-5555-7777------7777\55-5/77------7777-5555-7777-9999-7777\55-5-5555-7777-|

"Bridge""pART 1"
D|-------------|            D|----------------------|
A|-------------|            A|----------------------|
F|-7777/9999---|  x3   then F|--------7777/9999-----|
C|-7777/9999-7-|            C|-777777-7777/9999-777-|
G|-5555/7777-7-|            G|-777777-5555/7777-777-|
C|-----------7-|            C|-777777-----------777-|
                                                ^^^

"Bridge""Part 2""Both Guitars"
D|--------------------------|
A|--------------------------|
F|-7/9\7-7/11\7-7\6/7-7/9\7-|
C|--------------------------|
G|--------------------------|
C|--------------------------|

Chorus
then your done


any Corrections email me at
synyster595@gmail.com


(Another quick note: if y'all have the lead guitar in the chorus thats really hard to
please email me
and ill added it to it)(I cant hear it good enough so yea thats why its not in the tab)

            
            
Suggest correction
Creating personal tab
Creating personal tab
You can edit any tab online and save it as your Personal.

You can edit, replace or remove any tab part or add personal notes – all changes will be seen only by you.

Personal tabs can be accessed anytime from any device, even offline.
Learn more »
comments
print report bad tab
6 comments total. Showing first comments.
+4 reply
guitar4life97 109 Nov 14, 2009 05:56 AM

THE INTRO SHOULD GO

D|---------------------------|
A|---------------------------|
F|--7/9\7-9/11\7-7\6/7-7/9\7-|
C|-0-----0------0-----0------|
G|---------------------------|
C|---------------------------|

-2 reply
kaulthelegend 162 Jan 02, 2010 12:22 PM

dude there is guitar in verse i got plenty of correction but too lazy to tab them out

0 reply
Firewarrior 42 Jul 13, 2010 05:40 PM

i think you've got it pretty spot on man

guest
You may want to rate the tab now too:
select rating
Wanna post a correction for this tab? Suggest correction