Oops, an error
Loading. Please wait.
We have an official Sometimes tab made by UG professional guitarists. Check out the tab »
×
by Skillet
21,320 views 18 this week
8 commentsread comments
1 2 3 4 5
x 10
add to favorites
×
Save as Personal and add changes to this tab that will be seen only by you. Learn more ›
×
You can save this tab as Personal to edit and correct it or add notes. All changes will be seen only by you. Learn more »
launch autoscroll
font size
0
reset
how to read this tab
guitar tuner
edit
Autoscroll
slow
fast
+/-
esc
set tempo
stop
Pre-Intro
E|----77777-|
B|----------|
D|5-0-------|
A|5-0-------|
D|5-0-------|

Intro
Guitar 1
|-------------------|
|-------------------|
|-------------------|
|-99-99-7-999-99-4-7|(x2)
|-99-99-7-999-99-4-7|
|-99-99-7-999-99-4-7|

Guitar 2(on Second time)
|----------------------|
|77--------77-----8----|
|--66-77-44--66-77-----|
|----------------------|
|----------------------|
|----------------------|

Verse
|-------------------|
|-------------------|
|-------------------|
|-99-99-7-999-99-4-7|(x3)
|-99-99-7-999-99-4-7|
|-99-99-7-999-99-4-7|

Pre-Chorus
|---------------------|
|---------------------|
|---------------------|
|-5555-7777-5555-7777-|
|-5555-7777-5555-7777-|
|-5555-7777-5555-7777-|

Chorus
|-------------------|
|-------------------|
|-------------------|
|-5555-2222-99-99-7-|(x2)
|-5555-2222-99-99-7-|
|-5555-2222-99-99-7-|

|------------------------------|
|------------------------------|
|------------------------------|
|-5555-2222-9999-7777-5555-2222|
|-5555-2222-9999-7777-5555-2222|
|-5555-2222-9999-7777-5555-2222|

Back To Intro
Verse
Chorus

Pre-Bridge
Guitar 1
|---|
|---|
|---|
|-9-|
|-9-|
|-9-|

Guitar 2
|------------------------------|
|------------------------------|
|--------------------9999-9s11-|
|-999-11-11-11-121212----------|(x2)
|------------------------------|
|------------------------------|

Solo
Guitar 1
|-------------------|
|-------------------|
|-------------------|
|-5555-2222-99999999|
|-5555-2222-99999999|
|-5555-2222-99999999|

|-------------------|
|-------------------|
|-------------------|
|-5555-2222-77777777|
|-5555-2222-77777777|
|-5555-2222-77777777|

Guitar 2: Idk the solo (higher octave of pre-bridge^)

Bridge
|--------------------|
|--------------------|
|--------------------|
|-5555-2222-9999-7777|
|-5555-2222-9999-7777|
|-5555-2222-9999-7777|

|--------------|
|--------------|
|--------------|
|-5-0-22222222-|
|-5-0-22222222-|
|-5-0-22222222-|

Verse 3
|-------------------|
|-------------------|
|-------------------|
|-99-99-7-999-99-4-7|
|-99-99-7-999-99-4-7|
|-99-99-7-999-99-4-7|

Chorus

Outro
|-------------------|
|-------------------|
|-------------------|
|-99-99-7-999-99-4-7|(x2)
|-99-99-7-999-99-4-7|
|-99-99-7-999-99-4-7|

|------------------|
|------------------|
|------------------|
|-99-99-7-9999-999-|
|-99-99-7-9999-999-|
|-99-99-7-9999-999-|

            
            
Suggest correction
Creating personal tab
Creating personal tab
You can edit any tab online and save it as your Personal.

You can edit, replace or remove any tab part or add personal notes – all changes will be seen only by you.

Personal tabs can be accessed anytime from any device, even offline.
Learn more »
comments
print report bad tab
8 comments total. Showing first comments.
0 reply
D.I.R.T. 84 Sep 02, 2009 09:58 AM

the second part of the pre intro is actully

e-----------------------|
B--12--12--12--12--12---|
G--14^-14^-14^-14^-14^--| (^=bend up)
D-----------------------|

And you're only bending the G string

+1 reply
Monkey082692 164 Sep 02, 2009 01:58 PM

It's in Drop B as far as I know, at least thats how I play it and it sounds right.

Intro (to start you off)

(Second Guitar)

B -8--3--5--|
F#-8--3--5--| x1
B -8--3--5--|

(Second Guitar) P2

E -------5---------------|
B -00-00-5--00-0-5/2/5---| x2 (Into the verse too)
F#-00-00-3--00-0-7/0/3---|
B -00-00----00-0---------|

I think you had everything right just need to convert it to the right tuning

0 reply
Skillet_Panhead 182 Sep 03, 2009 11:48 AM

Monkey is correct, the song's in Drop B

guest
Wanna post a correction for this tab? Suggest correction