Oops, an error
Loading. Please wait.

Those Nights bass

version 1
version 1

Whole song

Interactive

by Skillet
6,272 views 1 this week
no commentswrite comment
1 2 3 4 5
1 last vote to show rating
add to favorites
×
Save as Personal and add changes to this tab that will be seen only by you. Learn more ›
×
You can save this tab as Personal to edit and correct it or add notes. All changes will be seen only by you. Learn more »
launch autoscroll
font size
0
reset
guitar tuner
backing track
0:00
0:00
edit
Autoscroll
slow
fast
+/-
esc
set tempo
stop
Okay yet again No one else has made a bass tab but there is bass in the song so I
guess I'll make another one...

This is meant to be played on a 5-string, yes the fag that posted the 2nd version did it 
that, but this is for those of us that DON"T have 5 strings, and don't feel like doing 
super drop tuning.

Skillet -- Those Nights

Drop D

Intro 2x
G|------------------------|------------------------|
D|------------------------|------------------------|
A|--3-3-------------------|--3-3-------------------|
D|----------5-5-----2-2-3-|----------5-5-----2-2-3-|

Verso 1x
|---------------------------------------------------------------|
|---------------------------------------------------------------|
|---------------------------------3-3-3-3-3-3-3-----------------|
|-0/7-7-7-7-7-7-7-3-3-3-3-3-3-3-3---------------5-5-5-5-5-3-3-3-|

|-------------------------------------------------------------|
|-------------------------------------------------------------|
|-------------------------------3-3-3-3-3-3-3-----------------|
|-7-7-7-7-7-7-7-3-3-3-3-3-3-3-3---------------5-5-5-5-5-3-3-3-|

|---------------------------------------------------|
|---------------------------------------------------|
|---------------------------------------------------|
|-0-0-0-0-0-0-0-0-0-0-0-0-0-0-0-0-3-3-3-3-3-3-3-3-3-|

Chorus 2x
|--------------------------------------------------------|
|--------------------------------------------------------|
|-3-3-3-3------------------------------------------------|
|---------5-5-5-5-3-3-3-3-3-3-3-3-7-7-7-7-2-2-2-2-3-3--33|

|--------------------------------------------------------|
|--------------------------------------------------------|
|-3-3-3-3------------------------------------------------|
|---------5-5-5-5-3-3-3-3-3-3-3-3-7-7-7-7-2-2-2-2-3-3--33|

Intro 2x
|------------------------|------------------------|
|------------------------|------------------------|
|--3-3-------------------|--3-3-------------------|
|----------5-5-----2-2-3-|----------5-5-----2-2-3-|

Verse 1x
|---------------------------------------------------------------|
|---------------------------------------------------------------|
|---------------------------------3-3-3-3-3-3-3-----------------|
|-0/7-7-7-7-7-7-7-3-3-3-3-3-3-3-3---------------5-5-5-5-5-3-3-3-|

|-------------------------------------------------------------|
|-------------------------------------------------------------|
|-------------------------------3-3-3-3-3-3-3-----------------|
|-7-7-7-7-7-7-7-3-3-3-3-3-3-3-3---------------5-5-5-5-5-3-3-3-|

|---------------------------------------------------|
|---------------------------------------------------|
|---------------------------------------------------|
|-0-0-0-0-0-0-0-0-0-0-0-0-0-0-0-0-3-3-3-3-3-3-3-3-3-|

Chorus 2x
|--------------------------------------------------------|
|--------------------------------------------------------|
|-3-3-3-3------------------------------------------------|
|---------5-5-5-5-3-3-3-3-3-3-3-3-7-7-7-7-2-2-2-2-3-3--33|

|--------------------------------------------------------|
|--------------------------------------------------------|
|-3-3-3-3------------------------------------------------|
|---------5-5-5-5-3-3-3-3-3-3-3-3-7-7-7-7-2-2-2-2-3-3--33|

Intro 4x
|------------------------|------------------------|
|------------------------|------------------------|
|--3-3-------------------|--3-3-------------------|
|----------5-5-----2-2-3-|----------5-5-----2-2-3-|

|------------------------|------------------------|
|------------------------|------------------------|
|--3-3-------------------|--3-3-------------------|
|----------5-5-----2-2-3-|----------5-5-----2-2-3-|

Short Pause

Intro 1x
|------------------------|
|------------------------|
|--3-3-------------------|
|----------5-5-----2-2-3-|

|--------------------------------------------------------|
|--------------------------------------------------------|
|-3-3-3-3------------------------------------------------|Play 5 times
|---------5-5-5-5-3-3-3-3-3-3-3-3-7-7-7-7-2-2-2-2-3-3--33|

|------------|
|------------|
|------------|
|-3~~~~~~~~~~|  (low D)

            
            
Suggest correction
Creating personal tab
Creating personal tab
You can edit any tab online and save it as your Personal.

You can edit, replace or remove any tab part or add personal notes – all changes will be seen only by you.

Personal tabs can be accessed anytime from any device, even offline.
Learn more »
Give kudos to tab author, rate the tab!
1 2 3 4 5
comments
print report bad tab
guest
You may want to rate the tab now too:
select rating
Wanna post a correction for this tab? Suggest correction