Oops, an error
Loading. Please wait.

Undefeated tab

version 1
version 1

Whole song

  • This tab does not have the exact rhythm of the gui... Show more
by Skillet
1,060 views 15 this week
4 commentsread comments
1 2 3 4 5
x 4
add to favorites
×
Save as Personal and add changes to this tab that will be seen only by you. Learn more ›
×
You can save this tab as Personal to edit and correct it or add notes. All changes will be seen only by you. Learn more »
launch autoscroll
font size
0
reset
how to read this tab
guitar tuner
edit
Autoscroll
slow
fast
+/-
esc
set tempo
stop
Here is guitar tab for the song "Undefeated" by Skillet.

Guitar 1, 2: Electric guitars with distortion, dropped D. 

[Intro]

GUITAR 1: 

e|---------------------------|-----------------------------------------------|
B|---------------------------|-----------------------------------------------|
G|---------------------------|-----------------------------------------------|
D|-9-9-9#-9#-9b10-9#-9#-9#---|---------9-9-9#-9#-9b10-9#-9#-9#---------------|
A|-9-9-9#-9#-9b10-9#-9#-9#---|-(PAUSE)-9-9-9#-9#-9b10-9#-9#-9#---------------|
D|-9-9-9#-9#-9b10 9#-9#-9#---|---------9-9-9#-9#-9b10-9#-9#-9#---------------|
                          
GUITAR 2:
                           Im Undefeted         
e|---------------------------------------------------------------------------|
B|-------------------------------------12--10--7----12--10--5----------------|
G|-------------------------------------x---x---x----x---x---x----------------|
D|-------------------------------------9---7---4----9---7---2----------------|
A|---------------------------------------------------------------------------|
D|---------------------------------------------------------------------------|

[Pre Verse]

GUITAR 1: 

e|---------------------------------------------------------------------------|
B|---------------------------------------------------------------------------|
G|---------------------------------------------------------------------------|
D|-9-------------------------------------------------------------------------|
A|-9-(x16)-------------------------------------------------------------------|
D|-9-------------------------------------------------------------------------|
pm .

[Verse 1]

GUITAR 1: Play 4 times

e|---------------------------------------------------------------------------|
B|---------------------------------------------------------------------------|
G|---------------------------------------------------------------------------|
D|-9------7------0-------2---------------------------------------------------|
A|-9-(x8)-7-(x8)-0-(x8)- 2-(x8)----------------------------------------------|
D|-9------7------0-------2---------------------------------------------------|
pm .......................


[Pre chorus]

GUITAR 1 & 2:
e|---------------------------------------------------------------------------|
B|---------------------------------------------------------------------------|
G|---------------------------------------------------------------------------|
D|-5~--2~--------------------------------------------------------------------|
A|-5~--2~--------------------------------------------------------------------|
D|-5~--2~--------------------------------------------------------------------|

[Chorus]

GUITAR 1 & 2: Play twice

e|--------------------------------------|--------------------------------------|
B|--------------------------------------|--------------------------------------|
G|--------------------------------------|--------------------------------------|
D|-9-9-9#-9#-9b10-9#-5------2#-2#-2#-2#-|-9-9-9#-9#-9b10-9#-5------7#-7#-7#-7#-|
A|-9-9-9#-9#-9b10-9#-5-(x5)-2#-2#-2#-2#-|-9-9-9#-9#-9b10-9#-5-(x5)-7#-7#-7#-7#-|
D|-9-9-9#-9#-9b10 9#-5------2#-2#-2#-2#-|-9-9-9#-9#-9b10-9#-5------7#-7#-7#-7#-|

[Post Chorus]:

GUITAR 1 & 2:

e|---------------------------------------------------------------------------|
B|---------------------------------------------------------------------------|
G|---------------------------------------------------------------------------|
D|-9-9-9#-9#-9b10-9#-9#-9#---------------------------------------------------|
A|-9-9-9#-9#-9b10-9#-9#-9#---------------------------------------------------|
D|-9-9-9#-9#-9b10 9#-9#-9#---------------------------------------------------|

[Verse 2]

GUITAR 1: Play 4 times

e|---------------------------------------------------------------------------|
B|---------------------------------------------------------------------------|
G|---------------------------------------------------------------------------|
D|-9------7------0-------2---------------------------------------------------|
A|-9-(x8)-7-(x8)-0-(x8)- 2-(x8)----------------------------------------------|
D|-9------7------0-------2---------------------------------------------------|
pm .......................


[Pre chorus]

GUITAR 1 & 2:
e|---------------------------------------------------------------------------|
B|---------------------------------------------------------------------------|
G|---------------------------------------------------------------------------|
D|-5~--2~--------------------------------------------------------------------|
A|-5~--2~--------------------------------------------------------------------|
D|-5~--2~--------------------------------------------------------------------|

[Chorus]

GUITAR 1 & 2: Play twice

e|--------------------------------------|--------------------------------------|
B|--------------------------------------|--------------------------------------|
G|--------------------------------------|--------------------------------------|
D|-9-9-9#-9#-9b10-9#-5------2#-2#-2#-2#-|-9-9-9#-9#-9b10-9#-5------7#-7#-7#-7#-|
A|-9-9-9#-9#-9b10-9#-5-(x5)-2#-2#-2#-2#-|-9-9-9#-9#-9b10-9#-5-(x5)-7#-7#-7#-7#-|
D|-9-9-9#-9#-9b10 9#-5------2#-2#-2#-2#-|-9-9-9#-9#-9b10-9#-5------7#-7#-7#-7#-|

[Bridge]

Guitar 1 & 2:

e|-----------------------------|-----------------------------|-----------------|
B|-----------------------------|-----------------------------|-----------------|
G|-----------------------------|-----------------------------|-----------------|
D|-5------2------9------7------|-5------2------9------7------|-5------2--------|
A|-5-(x5)-2-(x5)-9-(x8)-7-(x8)-|-5-(x5)-2-(x5)-9-(x8)-7-(x8)-|-5-(x5)-2-(x5)---|
D|-5------2------9------7------|-5------2------9------7------|-5------2--------|

[Post Bridge]

GUITAR 1 & 2:

e|---------------------------------------------------------------------------|
B|---------------------------------------------------------------------------|
G|---------------------------------------------------------------------------|
D|-9-9-9#-9#-9b10-9#-9#-9#---------------------------------------------------|
A|-9-9-9#-9#-9b10-9#-9#-9#---------------------------------------------------|
D|-9-9-9#-9#-9b10 9#-9#-9#---------------------------------------------------|

[Chorus]

GUITAR 1 & 2: Play twice

e|--------------------------------------|--------------------------------------|
B|--------------------------------------|--------------------------------------|
G|--------------------------------------|--------------------------------------|
D|-9-9-9#-9#-9b10-9#-5------2#-2#-2#-2#-|-9-9-9#-9#-9b10-9#-5------7#-7#-7#-7#-|
A|-9-9-9#-9#-9b10-9#-5-(x5)-2#-2#-2#-2#-|-9-9-9#-9#-9b10-9#-5-(x5)-7#-7#-7#-7#-|
D|-9-9-9#-9#-9b10 9#-5------2#-2#-2#-2#-|-9-9-9#-9#-9b10-9#-5------7#-7#-7#-7#-|


[Outro]

e|---------------------------------------------------------------------------|
B|---------------------------------------------------------------------------|
G|---------------------------------------------------------------------------|
D|-5------2#-----------------------------------------------------------------|
A|-5-(x5)-2#-----------------------------------------------------------------|
D|-5------2#-----------------------------------------------------------------|


************************************

| (xN)   Repeat chord N Times.
| ~      Let Ring.
| #      Stop chord right after played.
| b      Bend.
| x  Dead note
| .  Staccato
| ~  Vibrato 
| pm     Palm Mute.

************************************

            
            
Suggest correction
Creating personal tab
Creating personal tab
You can edit any tab online and save it as your Personal.

You can edit, replace or remove any tab part or add personal notes – all changes will be seen only by you.

Personal tabs can be accessed anytime from any device, even offline.
Learn more »
comments
print report bad tab
4 comments total. Showing first comments.
0 reply
madman2108 10 Feb 18, 2017 04:53 PM

It is Drop B, not D

0 reply
Fishhunter500 10 Apr 05, 2017 07:29 PM

I was just going to say the same thing

0 reply
RustyStarman63 10 Oct 24, 2017 09:10 AM

Same

guest
You may want to rate the tab now too:
select rating
Wanna post a correction for this tab? Suggest correction