Oops, an error
Loading. Please wait.

Brielle tab

version 1
version 1

Whole song

62,332 views 51 this week
7 commentsread comments
1 2 3 4 5
x 28
add to favorites
×
Save as Personal and add changes to this tab that will be seen only by you. Learn more ›
×
You can save this tab as Personal to edit and correct it or add notes. All changes will be seen only by you. Learn more »
launch autoscroll
font size
0
reset
how to read this tab
guitar tuner
edit
Autoscroll
slow
fast
+/-
esc
set tempo
stop
----------------------------------------------------------------------------
                             Brielle - Sky Sailing
----------------------------------------------------------------------------
Tabbed by: Jeremy Keltner
Email: jkeltner@rams.colostate.edu

Tuning: Down 1 Step (DGCFAD)

[Intro/Verse] (play x1 for intro, x2 for verse)

D|----------------------------------------------------|
A|----1-----1-----1-----1------3-----3-----3/5---1----|
F|------0-----0-----0-----0------0-----0-------0---0--|
C|--3-----3-----2-----2-----/5-----5------------------|
G|---------------------------------------3------------|
D|----------------------------------------------------|

D|----------------------------------------------3----|
A|----1-----1-----1-----1---------3---1-------3------|
F|------0-----0-----0-----0---2/4---0-----4/5-----5--|
C|--3-----3------------------------------------------|
G|--------------3-----3------------------------------|
D|--------------------------3-----------3------------|

D|----------------------------------------------------|
A|----1-----1-----1-----1------3-----3-----3/5---1----|
F|------0-----0-----0-----0------0-----0-------0---0--|
C|--3-----3-----2-----2-----/5-----5------------------|
G|---------------------------------------3------------|
D|----------------------------------------------------|

D|-----------------------------------------------3----|
A|----1-----1----------------------3---1-------3------|
F|------0-----0----5-0---5-0---2/4---0-----4/5-----5--|
C|--3-----3-----/7-----7------------------------------|
G|----------------------------------------------------|
D|---------------------------3-----------3------------|

[Pre-Chorus]

When the new sights grow old...
D|--8---8---8---3--------------------------------------------|
A|--5---5---5---3---8--8--8--8-8-8--8---8--8--8--8---8--x-x--|
F|--5---5---5---5---0--0--0--0-0-0--0---0--0--0--0---0--x-x--|
C|--7---6---5---4---7--7--7--7-7-7-/9---9--9--9--9---9--x-x--|
G|------------------8--8--8--8-8-8-/10--10-10-10-10--10-x-x--|
D|-----------------------------------------------------------|

[Chorus]

D|--3-------1---3---3-------1---3--3--|
A|--1---8---3---1---1---8---3---1--3--|
F|--0---0---2---2---0---0---2---2--4--| (x2)
C|--2---9---0---3---2---9---0---3--5--|
G|--3---10----------3---10------------|
D|------------------------------------|

So until then I wish you well...
D|--1--3--3--3~--|
A|--3--1--1--3~--|
F|--2--0--2--4~--|
C|--0--2--3--5~--|
G|---------------|
D|---------------|

[Verse 2]
(Play Intro x2)

[Pre-Chorus 2]
(Repeat Pre-Chorus)

[Chorus 2]

D|--3-------1---3---3-------1---3--3--|
A|--1---8---3---1---1---8---3---1--3--|
F|--0---0---2---2---0---0---2---2--4--| (x2)
C|--2---9---0---3---2---9---0---3--5--|
G|--3---10----------3---10------------|
D|------------------------------------|

So until then I wish you well...
D|--1--3--3---|
A|--3--1--1---|
F|--2--0--2---| (x2)
C|--0--2--3---|
G|------------|
D|------------|

I love you my darling farewell, my dear Brielle...
D|--1--3--3--3~--|
A|--3--1--1--3~--|
F|--2--0--2--4~--|
C|--0--2--3--5~--|
G|---------------|
D|---------------|

[Outro]

D|-----------------------------------3----3~---|
A|----1-----1----------------------3------1~---|
F|------0-----0----5-0---5-0---4/5-----0--0~---|
C|--3-----3-----/7-----7------------------2~---|
G|----------------------------------------3~---|
D|---------------------------3-----------------|

Another amazing song by Adam Young, it's really fun to play as well. Enjoy!



************************************

| /  Slide up
| x  Dead note
| ~  Vibrato

************************************

            
            
Suggest correction
Creating personal tab
Creating personal tab
You can edit any tab online and save it as your Personal.

You can edit, replace or remove any tab part or add personal notes – all changes will be seen only by you.

Personal tabs can be accessed anytime from any device, even offline.
Learn more »
comments
print report bad tab
7 comments total. Showing first comments.
+1 reply
ambient203 233 Jul 12, 2010 11:19 PM

Very nice tab bud, I'm sure this tab is gonna get a bunch of praise below. The verse is pretty tricky but fun indeed! :) thanks for tabbing this out, I'm sure people will appreciate it like me, keep it up man - 5 stars

+1 reply
gurleymanbrg 263 Jul 17, 2010 08:46 AM

Great tab dude. Sounds just like the song. 5 stars for sure

+5 reply
hardrox 16 Jul 21, 2010 06:24 PM

Super awesome. In my opinion this acoustic stuff is better then the electronic stuff. 5 stars.

guest
You may want to rate the tab now too:
select rating
Wanna post a correction for this tab? Suggest correction