Oops, an error
Loading. Please wait.

Brielle tab

version 2
version 2

Whole song

10,523 views 3 this week
no commentswrite comment
1 2 3 4 5
x 6
add to favorites
×
Save as Personal and add changes to this tab that will be seen only by you. Learn more ›
×
You can save this tab as Personal to edit and correct it or add notes. All changes will be seen only by you. Learn more »
launch autoscroll
font size
0
reset
how to read this tab
guitar tuner
edit
Autoscroll
slow
fast
+/-
esc
set tempo
stop
Brielle - Sky Sailing

Tabbed by: Adam Schweitzer. (adamschweit@gmail.com)

I really like this song, but nobody had the tabs for it. So for about an hour I fiddled 
my guitar, listened to the song thoroughly, and got it down. I'm positive this is 
This can be played with a pick, or finger-picking.

Tuning: Drop E to D.

Capo: 3rd fret!!!

Intro (played throughout verse):
e|--------------------------------------------------------------------------|
B|-------------------------------0------------------------------------3-----|
G|--0--0-----0--0----2---2-----0--0-0---0--0-----0--0-------2-0---0-2--2-2--|
D|---0--0-----0--0--0-0-0-0--------0-----0--0-----0--0--2/4--4---4------4---|
A|-3---3----2---2----------------------3---3----2---2-----------------------|
D|---------------------------5------------------------------0---------------|
There's a hand-written note tucked in the door of her screened-in porch.
And I am sailing away recalling that day miles from shore.
She was still wearing white and robin's-egg blue; her grandmother's dress.
When I left home early this year, how I wound up here is anyone's guess.

Pre-Chorus (Strumming):
------When the new sights grow old and I start to feel cold, I'll sail home again...
    Em                                           C          D
e|--0~-----------0~-----------0~-------0~--------0----------2--x-x-x-x------|
B|--0~-----------0~-----------0~-------0~--------1----------3--x-x-x-x------|
G|--0~-----------0~-----------0~-------0~--------0----------2--x-x-x-x------|
D|--2~-----------1~-----------0~-------0~--------2----------0--x-x-x-x------|
A|--2~-----------2~-----------2~-------4~--------3----------0--x-x-x-x------|
D|----------------------------------------------------------0--x-x-x-x------|

Chorus: Goodbye Brielle, only seasons can tell of the sweet dreams that we knew so well.
I'll see you around, our dear ocean town. The frozen days we set ablaze sent me driftin away...
like a butterfly, I floated by and now I'm alone. I wish I knew when I'd be back again.
  G       D       Am        C      G      D       Am      C       D
e|-0------2--------0--------0------0------2--------0------0-------2--|
B|-0------3--------1--------1------0------3--------1------1-------3--|
G|-0------2--------2--------0------0------2--------2------0-------2--|
D|-5------0--------2--------2------5------0--------2------2-------0--|
A|-5------0--------0--------3------5------0--------0------3-------0--|
D|-5------0------------------------5------0--------0--------------0--|

    Am                     C    D
So until then, I wish you well, my dear Brielle.

(Intro)
e|------------------------------------------------------------------------|
B|-------------------------------0------------------------------------3---|
G|--0--0-----0--0----2---2-----0--0-0---0--0-----0--0-------2-0---0-2--2-2|
D|---0--0-----0--0--0-0-0-0--------0-----0--0-----0--0--2/4--4---4------4-|
A|-3---3----2---2----------------------3---3----2---2---------------------|
D|---------------------------5------------------------------0-------------|

Verse (Play intro):
Skipping over the sand and cobblestone paths that wind through the trees.
Breathing the sweet ocean air makes a shy boy aware that he could be free.

Pre-Chorus (Strumming):
------When the new sights grow old and I start to feel cold, I'll sail home again...
    Em                                           C          D
e|--0~-----------0~-----------0~-------0~--------0----------2--x-x-x-x------|
B|--0~-----------0~-----------0~-------0~--------1----------3--x-x-x-x------|
G|--0~-----------0~-----------0~-------0~--------0----------2--x-x-x-x------|
D|--2~-----------1~-----------0~-------0~--------2----------0--x-x-x-x------|
A|--2~-----------2~-----------2~-------4~--------3----------0--x-x-x-x------|
D|----------------------------------------------------------0--x-x-x-x------|

Chorus: Goodbye Brielle, only seasons can tell of the sweet dreams that we knew so well.
I'll see you around, our dear ocean town. The frozen days we set ablaze sent me drifting away...
like a butterfly, I floated by and now I'm alone. I wish I knew when I'd be back again.

  G       D       Am        C      G      D       Am      C       D
e|-0------2--------0--------0------0---------2--------0------0-------2--|
B|-0------3--------1--------1------0---------3--------1------1-------3--|
G|-0------2--------2--------0------0---------2--------2------0-------2--|
D|-5------0--------2--------2------5---------0--------2------2-------0--|
A|-5------0--------0--------3------5---------0--------0------3-------0--|
D|-5------0------------------------5---------0--------0--------------0--|

    Am                     C        Am                     C      Am                       C    D~
So until then, I wish you well...So until then, I wish you well...For the time being, 
my dear Brielle.

Outro:
e|---------------------------------|
B|---------------------------------|
G|----0--0-----0--0----2---2-------|
D|-----0--0-----0--0--0-0-0-0------|
A|--3---3----2---2-----------------|
D|---------------------------------|

End on:
e|---x--
B|---0~~
G|---0~~
D|---5~~
A|---5~~
D|---5~~

            
            
Suggest correction
Creating personal tab
Creating personal tab
You can edit any tab online and save it as your Personal.

You can edit, replace or remove any tab part or add personal notes – all changes will be seen only by you.

Personal tabs can be accessed anytime from any device, even offline.
Learn more »
comments
print report bad tab
guest
You may want to rate the tab now too:
select rating
Wanna post a correction for this tab? Suggest correction