Oops, an error
Loading. Please wait.

To Forever Embrace The Sun tab

version 2
version 2

Whole song

178 views 1 this week
no commentswrite comment
1 2 3 4 5
2 more votes to show rating
add to favorites
×
Save as Personal and add changes to this tab that will be seen only by you. Learn more ›
×
You can save this tab as Personal to edit and correct it or add notes. All changes will be seen only by you. Learn more »
launch autoscroll
font size
0
reset
how to read this tab
guitar tuner
edit
Autoscroll
slow
fast
+/-
esc
set tempo
stop
skycamefalling - ...to forever embrace the sun

Tabbed by Jason Lascurain

Standard Tuning

h=hammer on
p=pull off
*=harmonic
/=slide


w/ reverb throughout

intro:
------------------------------------------------------------|
-------0-----------0-----------0----------------------------|
---0-----0-----0-----0-----0-----0---2-----2----------------|
-5---5-----5-5---5-----5-2---2-----2---2-2---2-2------------|
------------------------------------------------------------|
------------------------------------------------------------|

little solo at 0:22, play twice
------------------------------------------------------------------|
-/12-12-12-12h13p12-12-12h13p12-12-12h13p12-12--10-10-10-10-10-10-|
------------------------------------------------------------------|
------------------------------------------------------------------|
------------------------------------------------------------------|
------------------------------------------------------------------|

------------------------------------------------------------|
8-8-8-8-8-8-7-7-7-7-7-7-7-7-7-3-3-3-3/5-5-5-5-5-5-5-5-5-5-5-|
------------------------------------------------------------|
------------------------------------------------------------|
------------------------------------------------------------|
------------------------------------------------------------|

0:47, play 4x, i pick this part on the neck, near the 12th fret to give it the proper sound.
------------------------------------------------------------|
------------------------------------------------------------|
------------------------------------------------------------|
-5-5-5-5-5-5-4-4-4-4-4-4-2-2-2-2-2-2-2-2-2-2-2-2------------|
------------------------------------------------------------|
------------------------------------------------------------|

1:10, play twice
------------------------------------------------------------|
-----------------------------------------0-----0------------|
-------0-----------0-----------0-------0-----0--------------|
-5-5-5---5-5-4-4-4---4-4-2-2-2---2-2-2-----2----------------|
------------------------------------------------------------|
------------------------------------------------------------|

-----------------------------------------0-----0------------|
------------------------------------------------------------|
-------0-----------0-----------0-------0-----0--------------|
-5-5-5---5-5-4-4-4---4-4-2-2-2---2-2-2-----2----------------|
------------------------------------------------------------|
------------------------------------------------------------|

1:34, play 4x
------------------------------------------------------------|
-------0-----------0-----------0-----------0----------------|
------------------------------------------------------------|
-5-5-5---5-5-4-4-4---4-4-2-2-2---2-2-2-2-2---2-2------------|
------------------------------------------------------------|
------------------------------------------------------------|


1:57, play 4x
-------0-----------0----------------------------------------|
-------------------------------0-----------0----------------|
---0-----0-----0-----0-----0-----0-----0-----0--------------|
-5---5-----5-4---4-----4-2---2-----2-2---2-----2------------|
------------------------------------------------------------|
------------------------------------------------------------|


2:21, play 4x
------------------------------------------------------------|
-------------------------------------3-----3----------------|
-------7-----------6-----------4----------------------------|
-5-5-5---5-5-4-4-4---4-4-2-2-2---2-2---2-2---2-2------------|
------------------------------------------------------------|
------------------------------------------------------------|

------------------------------------------------------------|
------------------------------------------------------------|
-------7-----------6-----------4-----------4----------------|
-5-5-5---5-5-4-4-4---4-4-2-2-2---2-2-2-2-2---2-2------------|
------------------------------------------------------------|
------------------------------------------------------------|


3:09, play twice
------------------------------------------------------------|
-------0-----------0-----------0-----------0----------------|
-7-7-7---7-7-6-6-6---6-6-4-4-4---4-4-4-4-4---4-4------------|
-5-5-5---5-5-4-4-4---4-4-2-2-2---2-2-2-2-2---2-2------------|
------------------------------------------------------------|
------------------------------------------------------------|

------------------------------------------------------------|
-------0-------------0-----------0-----------0--------------|
-7-7-7---7-7-7/9-9-9---9-9-4-4-4---4-4-4-4-4---4-4----------|
-5-5-5---5-5-5/7-7-7---7-7-2-2-2---2-2-2-2-2---2-2----------|
------------------------------------------------------------|
------------------------------------------------------------|

3:32, play 4x, i again pick this part near the 12th fret.
------------------------------------------------------------|
------------------------------------------------------------|
------------------------------------------------------------|
-5-5-5-5-5-5-4-4-4-4-4-4-2-2-2-2-2-2-2-2-2-2-2-2------------|
------------------------------------------------------------|
------------------------------------------------------------|

3:56, play 4x
------------------------------------------------------------|
-------0-----------0-----------0-----------0----------------|
---0-----0-----0-----0-----0-----0-----0-----0--------------|
-5---5-----5-4---4-----4-2---2-----2-2---2-----2------------|
------------------------------------------------------------|
------------------------------------------------------------|


4:19, play 4x
-------0-----------0----------------------------------------|
-------------------------------0-----------0----------------|
---0-----0-----0-----0-----0-----0-----0-----0--------------|
-5---5-----5-4---4-----4-2---2-----2-2---2-----2------------|
------------------------------------------------------------|
------------------------------------------------------------|

The next few riffs can be done however many times you want, i do 4x each
you can also fiddle around during the last few minutes...

------------------------------------------------------------|
------------------------------------------------------------|
-7-7-7-7-7-7-6-6-6-6-6-6-4-4-4-4-4-4-4-4-4-4-4-4------------|
-5-5-5-5-5-5-4-4-4-4-4-4-2-2-2-2-2-2-1-1-1-2-2-2------------|
------------------------------------------------------------|
------------------------------------------------------------|

------------------------------------------------------------|
------------------------------------------------------------|
-7-7-7-7-7-7-7/9-9-9-9-9-9-4-4-4-4-4-4-4-4-4-4-4-4----------|
-5-5-5-5-5-5-5/7-7-7-7-7-7-2-2-2-2-2-2-2-2-2-2-2-2----------|
------------------------------------------------------------|
------------------------------------------------------------|


------------------------------------------------------------|
------------------------------------------------------------|
-7-7-7-7-7-7-6-6-6-6-6-6-4-4-4-4-4-4-4-4-4-4-4-4------------|
-5-5-5-5-5-5-4-4-4-4-4-4-2-2-2-2-2-2-2-2-2-2-2-2------------|
------------------------------------------------------------|
-3-3-3-3-3-3-2-2-2-2-2-2-0-0-0-0-0-0-0-0-0-0-0-0------------|

------------------------------------------------------------|
------------------------------------------------------------|
-7-7-7-7-7-7-7/9-9-9-9-9-9-4-4-4-4-4-4-4-4-4-4-4-4----------|
-5-5-5-5-5-5-5/7-7-7-7-7-7-2-2-2-2-2-2-2-2-2-2-2-2----------|
------------------------------------------------------------|
-3-3-3-3-3-3-3/5-5-5-5-5-5-0-0-0-0-0-0-0-0-0-0-0-0----------|


------------------------------------------------------------|
-8-8-8-8-8-8-7-7-7-7-7-7-5-5-5-5-5-5-5-5-5-5-5-5------------|
-7-7-7-7-7-7-6-6-6-6-6-6-4-4-4-4-4-4-4-4-4-4-4-4------------|
-5-5-5-5-5-5-4-4-4-4-4-4-2-2-2-2-2-2-1-1-1-2-2-2------------|
------------------------------------------------------------|
------------------------------------------------------------|

------------------------------------------------------------|
-8-8-8-8-8-8-8/1010101010105-5-5-5-5-5-5-5-5-5-5-5----------|
-7-7-7-7-7-7-7/9-9-9-9-9-9-4-4-4-4-4-4-4-4-4-4-4-4----------|
-5-5-5-5-5-5-5/7-7-7-7-7-7-2-2-2-2-2-2-2-2-2-2-2-2----------|
------------------------------------------------------------|
------------------------------------------------------------|


slowly fade with this:
------------------------------------------------------------|
-5~~~~~-----------------------------------------------------|
-4~~~~~-----------------------------------------------------|
-2~~~~~-----------------------------------------------------|
------------------------------------------------------------|
------------------------------------------------------------|

final riff:
-------10-----------9-----------7-----------7---------------|
-8-8-8----8-8-7-7-7---7-7-5-5-5---5-5-5-5-5---5-5-----------|
------------------------------------------------------------|
------------------------------------------------------------|
------------------------------------------------------------|
------------------------------------------------------------|

-------10----------------12-------------7-----------7-------|
-8-8-8----8-8-8/10-10-10----10-10-5-5-5---5-5-5-5-5---5-5---|
------------------------------------------------------------|
------------------------------------------------------------|
------------------------------------------------------------|
------------------------------------------------------------|

end with:
-7-----7-----7-----7-----5*-----7-----7-----7-----7*--------|
---5-5---5-5---5-5---5-5----5-5---5-5---5-5---5-5----5-5~~~-|
------------------------------------------------------------|
------------------------------------------------------------|
------------------------------------------------------------|
------------------------------------------------------------|

            
            
Suggest correction
Creating personal tab
Creating personal tab
You can edit any tab online and save it as your Personal.

You can edit, replace or remove any tab part or add personal notes – all changes will be seen only by you.

Personal tabs can be accessed anytime from any device, even offline.
Learn more »
Give kudos to tab author, rate the tab!
1 2 3 4 5
comments
print report bad tab
guest
Wanna post a correction for this tab? Suggest correction