Oops, an error
Loading. Please wait.

Number One bass

version 1
version 1

Whole song

Interactive

610 views 1 this week
no commentswrite comment
1 2 3 4 5
2 more votes to show rating
add to favorites
×
Save as Personal and add changes to this tab that will be seen only by you. Learn more ›
×
You can save this tab as Personal to edit and correct it or add notes. All changes will be seen only by you. Learn more »
launch autoscroll
font size
0
reset
guitar tuner
edit
Autoscroll
slow
fast
+/-
esc
set tempo
stop
Skye Sweetnam
Number One
Noise From The Basement
2004 Capitol Records
Submitted by: paramore_fans@yahoo.com

Bass Tab

Tuning: Standard EADG

Key: F#

Verse 1: I saw my boyfriend...
G|-----15--16--13-----3--4--6--4--6--6/11-10-8-|
D|-16--------------4---------------------------|
A|---------------------------------------------|
E|---------------------------------------------|

Now I'm living on the run looking out for number one
G|----------|-----------------|
D|----------|-----------------|
A|-2-2--4-4-|---------1---2-1-|
E|----------|-2-2-2-2---2-----|
                     x4

Verse 2: I took a ride to a city... x8 means pluck the string 8 times
G|-------------------------------------------------|
D|-------------------------------------------------|
A|-------1(x8)-2(x8)-------------1(x8)-2(x8)-4(x8)-|
E|-2(x8)-------------4(x8)-2(x8)-------------------|

I used to think it was over...
G|-----------------------------------|
D|-----------------------------------|
A|-2(x8)-4(x8)-----------------6(x8)-|
E|-------------2-2-2-2-1-1-1-1-------|

Now I'm living on the run looking out for number one
G|----------|-7---6--4--|
D|----------|-----------|
A|-2-2--4-4-|-----------|
E|----------|-----------|
              Silence

Chorus: One day you'll see me        I was the one...
G|---------------------------------|-------------|
D|---------------------------------|-------------|
A|---------4-4-4-4-6-6-6-6-2-2-2-2-|-2(x8)-5(x8)-|
E|-2-2-2-2-------------------------|-------------|
                x3

Post Chorus:
G|-----------------|
D|-----------------|
A|---------1---2-1-| x4
E|-2-2-2-2---2-----|


Verse 3: I hitched a ride on a greyhound...
G|-------------------------------------------------|
D|-------------------------------------------------|
A|-------1(x8)-2(x8)-------------1(x8)-2(x8)-4(x8)-|
E|-2(x8)-------------4(x8)-2(x8)-------------------|

I wanna follow the rivers...
G|-----------------------------------|
D|-----------------------------------|
A|-2(x8)-4(x8)-----------------6(x8)-|
E|-------------2-2-2-2-1-1-1-1-------|

Now I'm living on the run looking out for number one
G|----------|
D|----------|
A|-2-2--4-4-|
E|----------|


(Repeat Chorus)


Bridge: Late at night to tired to fight...
G|-----------------|
D|-----------------|
A|----------2(x16)-|
E|-4-4--0-0--------|

Right now I'm feeling fine...
G|-----------------|
D|-----------------|
A|----------4(x16)-|
E|-4-4--0-0--------|

yeah... while guitar solo
G|-----------------------|-----------------------|-------------|
D|-----------------------|-----------------------|-------------|
A|-----------------6(x8)-|-9-9-9-9-8-8-8-8-6(x8)-|-2(x8)-5(x8)-|
E|-2-2-2-2-1-1-1-1-------|-----------------------|-------------|
           x2                        x2

One day... you'll say
G|---
D|---
A|---
E|-2-

G|-7---6--4--|
D|-----------|
A|-----------|
E|-----------|
   Silence

(Repeat Chorus)

            
            
Suggest correction
Creating personal tab
Creating personal tab
You can edit any tab online and save it as your Personal.

You can edit, replace or remove any tab part or add personal notes – all changes will be seen only by you.

Personal tabs can be accessed anytime from any device, even offline.
Learn more »
Give kudos to tab author, rate the tab!
1 2 3 4 5
comments
print report bad tab
guest
You may want to rate the tab now too:
select rating
Wanna post a correction for this tab? Suggest correction