Oops, an error
Loading. Please wait.

Carino Brutal tab

version 1
version 1

Whole song

Interactive

37,056 views 18 this week
2 commentsread comments
1 2 3 4 5
x 3
add to favorites
×
Save as Personal and add changes to this tab that will be seen only by you. Learn more ›
×
You can save this tab as Personal to edit and correct it or add notes. All changes will be seen only by you. Learn more »
launch autoscroll
font size
0
reset
how to read this tab
guitar tuner
edit
Autoscroll
slow
fast
+/-
esc
set tempo
stop
Carino Brutal
Slapshock
Tabbed:babygreen2004 (Eugene Ifurung)
Tuning: Drop C


intro
|---------------------------------------------------------|
|---------------------------------------------------------|
|---------7---------9/7---------7-------------------------|
|-0~-0000-7-0~-0000-9/7-0~-0000-7-0~---7h8p7--------------|
|-0~-0000-5-0~-0000-7/5-0~-0000-5-0~-8-------8-8h9p8-3s5--|
|-0~-0000---0~-0000-----0~-0000---0~----------------------|
      ***       ***         ***

verse
|------------------------------------------------------------------|
|------------------------------------------------------------------|
|------------------------------------------------------------------|
|------------------------------------------------------------------|
|-------7-5------8-5-------5---7-------3s5-------7-5---------------|
|-00000----00000-----00000--000--00000-----00000-----00000-3h5p3h5-|
  *****    *****     *****  ***  *****     *****     *****
-----------------|
-----------------|
-----------------|
-----------------|
-1h3p1h3-3h5p3h5-|
-----------------|


Refrain
|-----------------------------------------------------------------------|
|-----------------------------------------------------------------------|
|-9999999999999-1111111111-999999999999-1111111111----------------------|
|-9999999999999-1111111111-999999999999-1111111111----------------------|
|-7777777777777--9-9-9-9-9-777777777777--9-9-9-9-9-00000000000000000000-|
|--------------------------------------------------00000000000000000000-|2x
                                                   ********************
|-----------------------------------------------------------------------|
|-----------------------------------------------------------------------|
|-9999999999999-1111111111-999999999999-1111111111----------------------|
|-9999999999999-1111111111-999999999999-1111111111-0~-------------------|
|-7777777777777--9-9-9-9-9-777777777777--9-9-9-9-9-0~-------------------|
|--------------------------------------------------0~-------------------|

Pre-Chorus
|---------------|
|---------------|
|---7----7----7-|
|-0-7----7----7-|
|-0-5-00-5-00-5-|
|-0---00---00---|
  *   **   **

Chorus
|---------------------------------------------|
|---------------------------------------------|
|----9-8----9-8----55\7----9-8----9-8----55\7-|
|----x-x----x-x----xx\x----x-x----x-x----xx\x-|
|-00-7-6-00-7-6-00-33\5-00-7-6-00-7-6-00-33\5-|
|-00-----00-----00------00-----00-----00------|
  **     **     **      **     **     **
|--------------------------|
|--------------------------|
|----13-11\9----13-11/9\11-|
|-----x--x\x-----x--x/x\x--|
|-00-11--9\7-00-11--9/7\9--|
|-00---------00------------|
  **         **
|------------------------------|
|------------------------------|
|----14-13----14-13----1111/13-|
|-----x--x-----x--x-----x-x/-x-|
|-00-12-11-00-12-11-00--9-9/11-|
|-00-------00-------00---------|
  **       **       **

Bridge
|----------------------------------------|
|----------------------------------------|
|-99999999999-111111111-99999999999-11~~-|
|-99999999999-111111111-99999999999-11~~-|
|-77777777777--99999999-77777777777--9~~-|
|----------------------------------------|

Solo
|------------------------------------------|
|------------------------------------------|
|----------------|----|--------------------|
|-9h11-11s14-13--| 3x |9h11h14p11p9h11h14--|
|--------------14|----|--------------------|
|------------------------------------------|

|-----------------------------------------------|
|-----------------------------------------------|
|----------------|    |-------------------------|
|-9h11-11s14-13--| 3x |-14-13---14-13---14-13---|
|--------------14|    |------14------14------14-|
|-----------------------------------------------|

Outro
|-------------------------------|
|-------------------------------|
|-------------------------------|
|-------------------------------|
|-00-0h1-00-0h1-00-0h1-00000000-|
|-00-0h1-00-0h1-00-0h1-00000000-|
                       ********

Pattern:
Intro 2x
Verse 3x
Refrain 3x
Pre-Chorus
Chorus
Refrain 3x
Pre-Chorus
Chorus 2x
Bridge
Solo
Verse 3x
Chorus 2x
Outro 4x


End .


SLAPSHOCK ROCKS!!
Dedicated to my band : The Ambivalent & Lego Band

            
            
Suggest correction
Creating personal tab
Creating personal tab
You can edit any tab online and save it as your Personal.

You can edit, replace or remove any tab part or add personal notes – all changes will be seen only by you.

Personal tabs can be accessed anytime from any device, even offline.
Learn more »
Give kudos to tab author, rate the tab!
1 2 3 4 5
comments
print report bad tab
2 comments total.
0 reply
doobidoo 6,272 Mar 13, 2010 04:50 PM

TOL...sure k bng nkadrop C guitar mo nung sinipra mo to???...comment lang po,,,

kasi ung drop c to..ito p lang ganito na,,,
|-----------------------------------------------|
|-----------------------------------------------|
|-----------------------------------------------|
|-0~-----1--0~-----3-1-0~------8p7-----5--------|
|-0~-000-1--0~-000-3-1-0~-000------8p5--6--5p0--|
|-0~-000-1--0~-000-3-1-0~-000-------------------|
*** *** ***

0 reply
doobidoo 6,272 Mar 13, 2010 04:53 PM

TOL...sure k bng nkadrop C guitar mo nung sinipra mo to???...comment lang po,,,

kasi ung drop c to..ito p lang ganito na,,,
|------------------------------------------------------|
|------------------------------------------------------|
|------------------------------------------------------|
|-0~------1--0~------3-1-0~------1-0~-8p7-----5--------|
|-0~-0000-1--0~-0000-3-1-0~-0000-1-0~-----8p5--6--5p0--|
|-0~-0000-1--0~-0000-3-1-0~-0000-1-0~------------------|
**** **** ****

guest
You may want to rate the tab now too:
select rating
Wanna post a correction for this tab? Suggest correction