Oops, an error
Loading. Please wait.

Satellite Kid tab

version 3
version 3

Whole song

112 views 1 this week
no commentswrite comment
1 2 3 4 5
3 more votes to show rating
add to favorites
×
Save as Personal and add changes to this tab that will be seen only by you. Learn more ›
×
You can save this tab as Personal to edit and correct it or add notes. All changes will be seen only by you. Learn more »
launch autoscroll
font size
0
reset
how to read this tab
guitar tuner
edit
Autoscroll
slow
fast
+/-
esc
set tempo
stop
Author
i feel like tabbing this song out on my own...
some other tabs here are mostly right, so i guess this is the improved version of the
here goes Satellite Kid by Slapshock.

standard tuning/drop D (D A D G B E)

. - palm mute
h - hammer-on
x - dead note
~ - let it ring

Intro
 E|----------------------------------|----------------|
 B|-----3-----------1-----1-----3----|-------1-------1|
 G|---2-----2-----2-----2-----2-----2|-----2-------2--|
 D|-0-----------3-----2-----0--------|----------------|
 A|----------------------------------|---1-----0h3----|
 D|----------------------------------|----------------|
                                     |                 x4
                                     |(pause here on 4th time)

 |-10--10-------------------22--22---|
 |---10-----------------------22-----|
 |-----------------------------------|
 |-----------------------------------|
 |-----------------------------------|
 |-----------------------------------|
                                      x3
                                      (follows after 1st time of part above)

 |-----------------------------------|
 |-----------------------------------|
 |-----------------------------------|
 |-----------------------------------|
 |-pick slide~~~~~~~-----------------|
 |-pick slide~~~~~~~-----------------|

 |-----------------------------------------|
 |-----------------------------------------|
 |-----------------------------------------|
 |-----------------------------------------|
 |-0-0--0-0---0-x-0-0---0--0-0---0-0-x-x---|
 |-0-0--0-0---0-x-0-0---0--0-0---0-0-x-x---|
   . .  . .   . . . .   .  . .   . . . .

 |-----------------------------------------|
 |-----------------------------------------|
 |-----------------------------------------|
 |-----------------------------------------|
 |-0-0--0-0---0-x-0-0---0--0-0---x-x-------|
 |-0-0--0-0---0-x-0-0---0--0-0---x-x-------|
   . .  . .   . . . .   .  . .   . .

 |-----------------------------------------|
 |-----------------------------------------|
 |-----------------------------------------|
 |-----------------------------------------|
 |-0-0--0-0---0-x-0-0---0--0-0---0-0-x-x---|
 |-0-0--0-0---0-x-0-0---0--0-0---0-0-x-x---|
   . .  . .   . . . .   .  . .   . . . .    *
                                            
 |-----------------------------------------|
 |-----------------------------------------|
 |-----------------------------------------|
 |-----------------------------------------|
 |-0-0--0-0---0-x-0-0---0--0-0---1-0-0-0-0-|
 |-0-0--0-0---0-x-0-0---0--0-0---1-0-0-0-0-|
   . .  . .   . . . .   .  . .   . . . . .  *
                                             (*repeat these 2 after chorus)

Verse
 |-------------------------------|
 |-------------------------------|
 |-------------------------------|
 |-------------------------------|
 |-0-0--0-0---0-x-0-0---0--0-0---|
 |-0-0--0-0---0-x-0-0---0--0-0---|
   . .  . .   . . . .   .  . .    x4

 |-22-22-22--------18-18-18------|
 |----------22-22-----------18-18|
 |-------------------------------|
 |-------------------------------|
 |-------------------------------|
 |-------------------------------|
                                  (follows after 3rd and 4th time of the
                                   part above)

 |-------------------------------------|
 |-------------------------------------|
 |-------------------------------------|
 |-------------------------------7~-8~-|
 |-0-0--0-0---0-x-0-0---0--0-0-555~-6~-|
 |-0-0--0-0---0-x-0-0---0--0-0-000~-0~-|
   . .  . .   . . . .   .  . . ..       *x4
                                           (*repeat only this part of 
                                             verse after 2nd chorus (repeat 
                                             twice))

Pre Chorus
 |--------------------------------------------------------------------------|
 |--------------------------------------------------------------------------|
 |--------------------------------------------------------------------------|
 |-7~--7-7~-----3--5--3--0~----7~-------3--5--3-3--5--3--0~----7~-----------|
 |-5~--5-5~---003--5--3--0~--555~-----003--5--3-3--5--3--0~--555~-----------|
 |-0~--0-0~---003--5--3--0~--000~-----003--5--3-3--5--3--0~--000~-----------|
              ..             ..       ..                     ..

 |-------------------------------------|
 |-------------------------------------|
 |-------------------------------------|
 |---3--5--3--0~----7~-------3--5--3---|
 |-003--5--3--0~--555~-----003--5--3---|
 |-003--5--3--0~--555~-----003--5--3---|
   ..             ..       ..

Chorus
 |---------------------------------------------------------------------------
 |---------------------------------------------------------------------------
 |-7~-----7~-----7~--10-10-10-12-12-12-12-12-12-14~-------------14~----------
 |-x~-----x~-----x~--x--x--x--x--x--x--x--x--x--x-~-------------x-~----------
 |-5~-55555~-55555~--8--8--8--10-10-10-10-10-10-12~-12-12-12-12-12~----------
 |----0000---0000-----------------------------------0--0--0--0---------------
      ....   ....                                   .  .  .  .

 ----------------------------------------------------------------------------
 ----------------------------------------------------------------------------
 -------------14~--15-14-12-10/14-12---7~-----7~-----7~---10~~9~~10~~--------
 -------------x-~--x--x--x--x-/x--x----x~-----x~-----x~---x-~~x~~x-~~--------
 12-12-12-12--12~--13-12-10-8-/12-10---5~-55555~-55555~-558-~~7~~8-~~--------
 0--0--0--0-------------------------------0000---0000---00-------------------
 .  .  .  .                               ....   ....   ..


 ------------------------------------|
 ------------------------------------|
 -7~-----7~-----7~--3-3-3-5-7-7-7-7--|
 -x~-----x~-----x~--x-x-x-x-x-x-x-x--|
 -5~-55555~-55555~--1-1-1-3-5-5-5-5--|
 ----0000---0000---------------------|

Intro
Verse
Pre Chorus
Chorus x2
Verse

Bridge
 |--------------------|
 |--------------------|
 |--7~--7~---7~--8~---|
 |----7~-------7~-----|
 |--------------------|
 |--------------------|
                       x2

 |------------|----------|-----------|----|
 |------------|----------|-----------|----|
 |------------|----------|-----------|----|
 |---8-8-8-7--|--8--8-7--|-8-8--8-7--|-8--|
 |-006-6-6-5--|-06--6-5--|-6-6--6-5--|-6--|
 |-000-0-0-0--|-00--0-0--|-0-0--0-0--|-0--|
   ..           .

 |-------------------|
 |-------------------|
 |-------------------|
 |-7-7-10--------10--|
 |-5-5-8---00-0-08---|
 |-0-0-0---00-0-00---|
           .. . .     x8

Chorus x2

Outro
 |-------|
 |-------|
 |-------|
 |-0-3-5-|
 |-0-3-5-|
 |-0-3-5-|
          x7

 |-------------------|
 |-------------------|
 |-------------------|
 |-7-7-7-7-7-7~------|
 |-5-5-5-5-5-5~------|
 |-0-0-0-0-0-0~------|

any questions? e-mail me: kenneth_nethzken7@yahoo.com
add me on ym, friendster or myspace: same e-mail add as the above...
enjoy dudes and rock on \m/ ;)

            
            
Suggest correction
Creating personal tab
Creating personal tab
You can edit any tab online and save it as your Personal.

You can edit, replace or remove any tab part or add personal notes – all changes will be seen only by you.

Personal tabs can be accessed anytime from any device, even offline.
Learn more »
Give kudos to tab author, rate the tab!
1 2 3 4 5
comments
print report bad tab
guest
You may want to rate the tab now too:
select rating
Wanna post a correction for this tab? Suggest correction