Oops, an error
Loading. Please wait.

Sigaw bass

1,309 views 1 this week
no commentswrite comment
1 2 3 4 5
3 more votes to show rating
add to favorites
×
Save as Personal and add changes to this tab that will be seen only by you. Learn more ›
×
You can save this tab as Personal to edit and correct it or add notes. All changes will be seen only by you. Learn more »
launch autoscroll
font size
0
reset
guitar tuner
edit
Autoscroll
slow
fast
+/-
esc
set tempo
stop
Difficulty
intermediate
Sigaw by Slapshock
Tabbed by Just Carlo Arceo    

Senya na kung 5 string yung bass
For any comment or suggestion

Friendster:agent_death69@yahoo.com

Intro:
G------------------------------------------------------------------|    
D------------------------------------------------------------------|
A-500-600-500-100-3333-----------------(3x)------------------------|
E------------------------------------------------------------------|
B------------------------------------------------------------------|

G------------------------------------------------------------------|
D------------------------------------------------------------------|
A-500-600-55-5-55--------------------------------------------------|
E------------------------------------------------------------------|
B------------------------------------------------------------------|

Verse(2x):
G------------------------------------------------------------------|
D------------------------------------------------------------------|
A-55555--555-55---11111--11-3333-----------------------------------|
E------------------------------------------------------------------|
B------------------------------------------------------------------|

G------------------------------------------------------------------|
D------------------------------------------------------------------|
A-55555--555-55---11111--133--865----------------------------------|
E------------------------------------------------------------------|
B------------------------------------------------------------------|

Pre Chorus:
G------------------------------------------------------------------|
D------------------------------------------------------------------|
A-500-600-500-800-865----------------------------------------------|
E------------------------------------------------------------------|
B------------------------------------------------------------------|

G------------------------------------------------------------------|
D-----------------8------------------------------------------------|
A-500-600-500-800--65----------------------------------------------|
E------------------------------------------------------------------|
B------------------------------------------------------------------|

G------------------------------------------------------------------|
D------------------------------------------------------------------|
A-500-600-500-800-8650-55-5-555-5----------------------------------|
E------------------------------------------------------------------|
B------------------------------------------------------------------|

Chorus:
G------------------------------------------------------------------|
D------------------------------------------------------------------|
A-/5-555--1-11-1111-3-333-33-33-3333-------------------------------|
E------------------------------------------------------------------|
B------------------------------------------------------------------|

G------------------------------------------------------------------|
D------------------------------------------------------------------|
A-5-555--1-11-1111--33-33-33-33-3333-------------------------------|
E------------------------------------------------------------------|
B------------------------------------------------------------------|

G------------------------------------------------------------------|
D---------------------------101010101010---------------------------|
A-5-555--1-11-1111-3-333-33----------------------------------------|
E------------------------------------------------------------------|
B------------------------------------------------------------------|

G------------------------------------------------------------------|
D------------------------------------------------------------------|
A-5-555--1-11-1111--33-33-33-33-3333-------------------------------|
E------------------------------------------------------------------|
B------------------------------------------------------------------|

 (Repeat Verse):
 (Repeat Pre Chorus):
 (Repeat Chorus):

Bridge:
G------------------------------------------------------------------|
D------------------------------------------------------------------|
A-0-5578-8-8875-0-5578-8-0-----------------------------------------|
E------------------------------------------------------------------|
B------------------------------------------------------------------|

G-----3------3-----------------------------------------------------|
D---3------3-------------------------------------------------------|
A-1------1---------------------------------------------------------|
E------------------------------------------------------------------|
B------------------------------------------------------------------|

G------------------------------------------------------------------|
D------------------------------------------------------------------|
A-0-5578-8-8875-0-5578-8-0-----------------------------------------|
E------------------------------------------------------------------|
B------------------------------------------------------------------|

G-----3------3-5-7-------------------------------------------------|
D---3------3-------------------------------------------------------|
A-1------1---------------------------------------------------------|
E------------------------------------------------------------------|
B------------------------------------------------------------------|

(2x):
G------------------------------------------------------------------|
D------------------------------------------------------------------|
A-5-55555-55555-55558/5--------------------------------------------|
E------------------------------------------------------------------|
B------------------------------------------------------------------|

G------------------------------------------------------------------|
D------------------------------------------------------------------|
A-5-55555-55555-55555----------------------------------------------|
E------------------------------------------------------------------|
B------------------------------------------------------------------|

(1x):
G------------------------------------------------------------------|
D------------------------------------------------------------------|
A-5-55555-55555-55555--5-55555-55555-55555-------------------------|
E------------------------------------------------------------------|
B------------------------------------------------------------------|

Out Chorus:
G------------------------------------------------------------------|
D------------------------------------------------------------------|
A-5-555--1--3-333-33-33-3333--------------------------------------|
E------------------------------------------------------------------|
B------------------------------------------------------------------|

G------------------------------------------------------------------|
D------------------------------------------------------------------|
A-5-555--1-11-1111--33-33-33-33-3333-------------------------------|
E------------------------------------------------------------------|
B------------------------------------------------------------------|

G------------------------------------------------------------------|
D---------------------------101010101010---------------------------|
A-5-555--1-11-1111-3-333-33----------------------------------------|
E------------------------------------------------------------------|
B------------------------------------------------------------------|


G------------------------------------------------------------------|
D------------------------------------------------------------------|
A-5-555--1-11-1111--33-33-33-33-3333-------------------------------|
E------------------------------------------------------------------|
B------------------------------------------------------------------|

(Wag Kang Lalayo):
G------------------------------------------------------------------|
D------------------------------------------------------------------|
A-5-555--1-11-1111--33-33-33-33-3333-------------------------------|
E------------------------------------------------------------------|
B------------------------------------------------------------------|

G------------------------------------------------------------------|
D------------------------------------------------------------------|
A-5-555--1-11-1111-3-333-33-33-3333--------------------------------|
E------------------------------------------------------------------|
B------------------------------------------------------------------|

G------------------------------------------------------------------|
D------------------------------------------------------------------|
A-5-555--1-11-1111-3-333-33-33-3333--------------------------------|
E------------------------------------------------------------------|
B------------------------------------------------------------------|

G------------------------------------------------------------------|
D------------------------------------------------------------------|
A-5-555--1-11-1111-3-333-33-33-3333--------------------------------|
E------------------------------------------------------------------|
B------------------------------------------------------------------|

Outro:
G------------------------------------------------------------------|
D------------------------------------------------------------------|
A-5-55555-55555-55558/5--------------------------------------------|
E------------------------------------------------------------------|
B------------------------------------------------------------------|

G------------------------------------------------------------------|
D------------------------------------------------------------------|
A-5-55555-55555-55555----------------------------------------------|
E------------------------------------------------------------------|
B------------------------------------------------------------------|

G------------------------------------------------------------------|
D------------------------------------------------------------------|
A-5-55555-55555-55558/5--------------------------------------------|
E------------------------------------------------------------------|
B------------------------------------------------------------------|

G------------------------------------------------------------------|
D------------------------------------------------------------------|
A-5-55555-55555-55555----------------------------------------------|
E------------------------------------------------------------------|
B------------------------------------------------------------------|

 (Drum Solo):

            
            
Suggest correction
Creating personal tab
Creating personal tab
You can edit any tab online and save it as your Personal.

You can edit, replace or remove any tab part or add personal notes – all changes will be seen only by you.

Personal tabs can be accessed anytime from any device, even offline.
Learn more »
Give kudos to tab author, rate the tab!
1 2 3 4 5
comments
print report bad tab
guest
Wanna post a correction for this tab? Suggest correction