Oops, an error
Loading. Please wait.

Waiting tab

version 1
version 1

Whole song

3,351 views 1 this week
3 commentsread comments
1 2 3 4 5
x 4
add to favorites
×
Save as Personal and add changes to this tab that will be seen only by you. Learn more ›
×
You can save this tab as Personal to edit and correct it or add notes. All changes will be seen only by you. Learn more »
launch autoscroll
font size
0
reset
how to read this tab
guitar tuner
edit
Autoscroll
slow
fast
+/-
esc
set tempo
stop
Band: SLAPSHOCK
Song: WAITING
Album: Silence
Tuning: drop D (D A D G B E)
Tabbed by: June Stephen R. Sayama
address: Cavite City, Philippines
email: june_sayama@yahoo.com / or text (09218546859)

hehe, 1st tab ko po to, im about 80% correct para sa akin, d ko lng po lam para sa inyo… hope you like it…

intro:
w/ distortion
E|----------------------------------|
B|----------------------------------|   
G|----------------------------------|
D|-5-5-5-5-7-7-7-7-8-8-8-8-7-7-7-7--|    
A|-5-5-5-5-5-5-5-5-5-5-5-5-5-5-5-5--|     
D|-5-5-5-5-5-5-5-5-5-5-5-5-5-5-5-5--|\      
                                      =>2x
E|----------------------------------|/
B|----------------------------------|
G|----------------------------------|
D|-1-1-1-1-1-1-1-1-1-1-1-1-1-1-1-1--|
A|-1-1-1-1-1-1-1-1-1-1-1-1-1-1-1-1--|
D|-1-1-1-1-1-1-1-1-1-1-1-1-1-1-1-1--|

Verse:
clean
E|-------13---------|             E|-------13---------|
B|---11----11--11---|             B|---11----11--11---|
G|-12--12----12-----| =>4x tapos  G|------------------| =>4x
D|------------------|             D|-13--13----13-----|
A|------------------|             A|------------------|
D|------------------|             D|------------------| 

Pre-chorus:
clean
E|-13-13-13-13-13-13-13-13-13-13-13-13-13-13-13-13|
B|-11-11-11-11-11-11-11-11-11-11-11-11-11-11-11-11|
G|-12-12-12-12-12-12-12-12-12-12-12-12-12-12-12-12|
D|------------------------------------------------|  =>2x
A|------------------------------------------------|
D|------------------------------------------------|

Chorus:
W/ distortion
E|--------------------------------------------|
B|--------------------------------------------|
G|--------------------------------------------|
D|-55-555555-55-55-555555-55-1111111111111111-| =>2x
A|-55-555555-55-55-555555-55-1111111111111111-|
D|-55-555555-55-55-555555-55-1111111111111111-|
        pm           pm         
E|----------------------------------|
B|----------------------------------|
G|----------------------------------|
D|-x-10-8-7-7-10-8-7-7-xxx-5-xxx-7--| 
A|-x-x--x-x-x-x--x-x-x-xxx-x-xxx-x--|
D|-x-8--6-5-5-8--6-5-5-xxx-3-xxx-5--|
               tapos
E|-------------------------------|
B|-------------------------------|
G|-------------------------------|
D|-x-10-8-7-7-10-8-7-7-xxx-5-0---| 
A|-x-x--x-x-x-x--x-x-x-xxx-x-0---|
D|-x-8--6-5-5-8--6-5-5-xxx-3-0---|

(repeat verse)
(repeat pre-chorus)
(repeat chorus)
bridge:
w/ distortion
E|----------------------------------|
B|----------------------------------|
G|----------------------------------|
D|-x-10-8-7-7-10-8-7-7-xxx-5-xxx-7--| =>4x
A|-x-x--x-x-x-x--x-x-x-xxx-x-xxx-x--|
D|-x-8--6-5-5-8--6-5-5-xxx-3-xxx-5--|
Tapos:
w/ distortion
E|-------------------------|
B|-------------------------|
G|-------------------------|
D|-5~-----1111111111111111-|
A|-5~-----1111111111111111-|
D|-5~-----1111111111111111-|

E|--------------------------------------------|
B|--------------------------------------------|
G|--------------------------------------------|
D|-55-555555-55-55-555555-55-1111111111111111-| 
A|-55-555555-55-55-555555-55-1111111111111111-|
D|-55-555555-55-55-555555-55-1111111111111111-|

E|----------------------------------|
B|----------------------------------|   
G|----------------------------------|
D|-5-5-5-5-7-7-7-7-8-8-8-8-7-7-7-7--|    
A|-5-5-5-5-5-5-5-5-5-5-5-5-5-5-5-5--|     
D|-5-5-5-5-5-5-5-5-5-5-5-5-5-5-5-5--|\      
                                      =>2x
E|----------------------------------|/
B|----------------------------------|
G|----------------------------------|
D|-1-1-1-1-1-1-1-1-1-1-1-1-1-1-1-1--|
A|-1-1-1-1-1-1-1-1-1-1-1-1-1-1-1-1--|
D|-1-1-1-1-1-1-1-1-1-1-1-1-1-1-1-1--|

Outro:
clean
E|----------10----------------------|
B|-10-11-13----10-11-13-------------|
G|----------------------------------| =>3x
D|----------------------------------|
A|----------------------------------|
D|----------------------------------|
D ko makuha yung dulo ng outro eh, diskarte nyo nalang yan

            
            
Suggest correction
Creating personal tab
Creating personal tab
You can edit any tab online and save it as your Personal.

You can edit, replace or remove any tab part or add personal notes – all changes will be seen only by you.

Personal tabs can be accessed anytime from any device, even offline.
Learn more »
comments
print report bad tab
3 comments total.
0 reply
I'm better than 95 Sep 02, 2006 06:43 AM

sa susunod kung ganto lang ang isusubmit mo wag na lang pwede ba?

0 reply
chickenlord 26 Jan 22, 2008 07:19 PM

tama yung intro at lead.. pero gago Im better than..
your better than a stupid potato

0 reply
ellimak_diyez10 10 May 03, 2008 11:00 PM

tamad ka namang gumawa di pa tinuloy outro dapat may (piano converted to guitar ulol) pero tnx sa tabs sana tama

guest
Wanna post a correction for this tab? Suggest correction