Oops, an error
Loading. Please wait.

Watch Me Bleed bass

213 views 1 this week
no commentswrite comment
1 2 3 4 5
2 more votes to show rating
add to favorites
×
Save as Personal and add changes to this tab that will be seen only by you. Learn more ›
×
You can save this tab as Personal to edit and correct it or add notes. All changes will be seen only by you. Learn more »
launch autoscroll
font size
0
reset
guitar tuner
edit
Autoscroll
slow
fast
+/-
esc
set tempo
stop
Difficulty
   Guitar intro

   verse

G|--------------------------------------------|
D|--------------------------------------------|
A|-4-4-4-4-4-4-4-4----------------------------|
E|-----------------5-5-5-5---2-2-2-2----------|

 Chorus

G|--------------------------------------------|
D|--------------------------------------------|
A|--------------------------------------------|
E|-4-4--4-2-4-5-5-5-5-5-----------------------|

 Repeat verse/chorus

 Break

G|-------------------------------------(4x)--|
D|-------------------------------------------|
A|-4-4-4--4-9-9--10-10-10-10-10-9-9-9-9-9----|
E|-------------------------------------------|

 Repeat chorus
 Repeat verse 2x

 Outro

G|--------------------------------------------|
D|--------------------------------------------|
A|-4-4-4-4-4-4-4-4----------4-4-10------------|
E|-----------------5-5-5-5--------------------|

Enjoy, Please Rate.
Cheers
 http://www.youtube.com/user/TrojanSkinhead94

            
            
Suggest correction
Creating personal tab
Creating personal tab
You can edit any tab online and save it as your Personal.

You can edit, replace or remove any tab part or add personal notes – all changes will be seen only by you.

Personal tabs can be accessed anytime from any device, even offline.
Learn more »
Give kudos to tab author, rate the tab!
1 2 3 4 5
comments
print report bad tab
guest
Wanna post a correction for this tab? Suggest correction