Oops, an error
Loading. Please wait.

Far And Away tab

version 1
version 1

Whole song

Interactive

by Slash
48,042 views 24 this week
6 commentsread comments
1 2 3 4 5
x 29
add to favorites
×
Save as Personal and add changes to this tab that will be seen only by you. Learn more ›
×
You can save this tab as Personal to edit and correct it or add notes. All changes will be seen only by you. Learn more »
launch autoscroll
font size
0
reset
how to read this tab
guitar tuner
backing track
0:00
0:00
edit
Autoscroll
slow
fast
+/-
esc
set tempo
stop
Tuning: Eb Ab Db Gb Bb eb

[Intro]
eb|-----------------------------------------------------------------------|
Bb|---------5----------------5----------------3----------------3----------|
Gb|-------5---5------------5---5------------5---5------------5---5--------|
Db|-----5-------5--------5-------5--------3-------3--------3-------3------| 
Ab|---7-----------7----7-----------5----3-----------3----3-----------3----|
Eb|-8----------------6----------------5----------------4------------------|

eb|------------------------------------------------------|
Bb|---------5----------------5----------------3----------|
Gb|-------5---5------------5---5------------5---5--------|
Db|-----5-------5--------5-------5--------3-------3------| 
Ab|---7-----------7----7-----------5----3-----------3----|
Eb|-8----------------6----------------5---------------4~-|

[Verse 1]
eb|-----------------------------------------------------------------------|
Bb|---------5----------------5----------------3----------------3----------|
Gb|-------5---5------------5---5------------5---5------------5---5--------| (4x)
Db|-----5-------5--------5-------5--------3-------3--------3-------3------| 
Ab|---7-----------7----7-----------5----3-----------3----3-----------3----|
Eb|-8----------------6----------------5----------------4------------------|

eb|------------------------------------------------------------------------|
Bb|---------3----------------5---------------------------------------------|
Gb|-------3---3------------7---7---------------5---5-----------------------|
Db|-----3-------3--------5-------5--------5----5h7-5h7---5------5----------|
Ab|---5-----------5----5-----------5------5h7--------------7-5--5h7-5------|
Eb|-6----------------7-----------------8-----------------------------------|

eb|------------------------------------------------------------------------|
Bb|---------3----------------5----------------5h6-5~-----------------------|
Gb|-------3---3------------7---7------------5------------------------------|
Db|-----3-------3--------5-------5--------5--------------------------------|
Ab|---5-----------5----5-----------5----7----------------------------------|
Eb|-6----------------7----------------8------------------------------------|

[Chorus 1]
eb|-3~---3~---1~--------3~---3~---1~--------3~---3~---1~-----|
Bb|-3~---3~---1~---555--3~---3~---1~---555--3~---3~---1~-----|
Gb|-4~---3~---2~---555--4~---3~---2~---555--4~---3~---2~-----|
Db|-5~---5~---3~---555--5~---5~---3~---555--5~---5~---3~-----|
Ab|-5~---5~---3~---333--5~---5~---3~---333--5~---5~---3~-----|
Eb|-3~---3~---1~--------3~---3~---1~--------3~---3~---1~-----|

eb|------------------------------------------------------------------------|
Bb|---------3----------------5-----------------------------8----------8----|
Gb|-------3---3------------7---7---------------5----5--7/9---9\7--7/9------|
Db|-----3-------3--------5-------5--------5----5h7-------------------------|
Ab|---5-----------5----5-----------5------5h7------------------------------|
Eb|-6----------------7-----------------8-----------------------------------|

[Verse 2]
eb|-----------------------------------------------------------------------|
Bb|---------5----------------5----------------3----------------3----------|
Gb|-------5---5------------5---5------------5---5------------5---5--------| (4x)
Db|-----5-------5--------5-------5--------3-------3--------3-------3------| 
Ab|---7-----------7----7-----------5----3-----------3----3-----------3----|
Eb|-8----------------6----------------5----------------4------------------|

eb|------------------------------------------------------------------------|
Bb|---------3----------------5---------------------8---8/10--8-------------|
Gb|-------3---3------------7---7--------5h7p5--7/9---9---------9\7-5-7-----|
Db|-----3-------3--------5-------5-----------------------------------------|
Ab|---5-----------5----5-----------5---------------------------------------|
Eb|-6----------------7-----------------------------------------------------|

eb|------------------------------------------------------------------------|
Bb|---------3----------------5----------------5h6-5h6-5~-------------------|
Gb|-------3---3------------7---7------------5------------------------------|
Db|-----3-------3--------5-------5--------5--------------------------------|
Ab|---5-----------5----5-----------5----7----------------------------------|
Eb|-6----------------7----------------8------------------------------------|

[Chorus 2]
eb|-3~---3~---1~--------3~---3~---1~--------3~---3~---1~-----|
Bb|-3~---3~---1~---555--3~---3~---1~---555--3~---3~---1~-----|
Gb|-4~---3~---2~---555--4~---3~---2~---555--4~---3~---2~-----|
Db|-5~---5~---3~---555--5~---5~---3~---555--5~---5~---3~-----|
Ab|-5~---5~---3~---333--5~---5~---3~---333--5~---5~---3~-----|
Eb|-3~---3~---1~--------3~---3~---1~--------3~---3~---1~-----|

eb|-----------------------------------|
Bb|---------3----------------5--------|
Gb|-------3---3------------7---7------|
Db|-----3-------3--------5-------5----|
Ab|---5-----------5----5-----------5--|
Eb|-6----------------7----------------|

[Solo 1]
eb|-----------5--------------------------------------------------------------|
Bb|-------------8---------------------------------------6-8------------------|
Gb|-----5-7b------7pbr-5---5h7-------5h7-----------5-7b-----7pbr-5---5h7/9~--|
Db|-5h7------------------7-----5h7-------6~----5h7-----------------7---------|
Ab|--------------------------------------------------------------------------|
Eb|--------------------------------------------------------------------------|

eb|-5---------------------------------------------------------------------------------|
Bb|-5-8----------8b-8brb-6-8b~--8brb-5brb/8~--6h8p6-----------------------------------|
Gb|-----9\7--5--------------------------------------9---------------------------------|
Db|------------7--------------------------------------10----10s12~-------10-12b-12-10-|
Ab|------------------------------------------------------10--------10h12--------------|
Eb|-----------------------------------------------------------------------------------|

eb|-----------------------------------------|
Bb|-------------------15brb~--13h15---------|
Gb|-------12h14-17-14---------------/14-17~-|
Db|-12s14-----------------------------------|
Ab|-----------------------------------------|
Eb|-----------------------------------------|

eb|-------15b--15-13-----------15-------------15---------------15b~-15pbr-13-15b--|
Bb|------------------17-15b-18----15pbr----------15b------------------------------|
Gb|-14-17-------------------------------17-14---------17-14h17--------------------|
Db|-------------------------------------------------------------------------------|
Ab|-------------------------------------------------------------------------------|
Eb|-------------------------------------------------------------------------------|

eb|--------------8----8----8----8----8----8----8------------------------------------|
Bb|-15pbr-13--11---11---11---11---12---12---12---12-13------------------------------|
Gb|-----------------------------------------------------12h14p12--------------------|
Db|--------------------------------------------------------------12h14p12-10h12p10--|
Ab|---------------------------------------------------------------------------------|
Eb|---------------------------------------------------------------------------------|

[Verse 3]
eb|------------------------------------------------------------------------|
Bb|----------7----------------7----------------5----------------5----------|
Gb|--------7---7------------7---7------------7---7------------7---7--------| (4x)
Db|------7-------7--------7-------7--------5-------5--------5-------5------| 
Ab|----9-----------9----9-----------9----5-----------5----5-----------5----|
Eb|-10----------------8----------------7----------------6------------------|

eb|----------------------------------------------|
Bb|---------5-----------------7---------5-5555---|
Gb|-------5---5-------------9---9-------5-5555---|
Db|-----5-------5---------7-------9-----5-5555---|
Ab|---7-----------7-----7-----------7---7-7777---|
Eb|-8-----------------9--------------------------|

[Chorus 3]
eb|-5----5----3---------5----5----3---------5----5----3------|
Bb|-5----5----3----777--5----5----3----777--5----5----3------|
Gb|-6----5----4----777--6----5----4----777--6----5----4------|
Db|-7----7----5----777--7----7----5----777--7----7----5------|
Ab|-7----7----5----555--7----7----5----555--7----7----5------|
Eb|-5----5----3---------5----5----3---------5----5----3------|


************************************

| b    Bend
| ~    Vibrato
| h    Hammer-on
| /    Slide up
| \    Slide down
| p    Pull-off
| pbr  Pre-bend release  

************************************

            
            
Suggest correction
Creating personal tab
Creating personal tab
You can edit any tab online and save it as your Personal.

You can edit, replace or remove any tab part or add personal notes – all changes will be seen only by you.

Personal tabs can be accessed anytime from any device, even offline.
Learn more »
comments
print report bad tab
6 comments total. Showing first comments.
0 reply
thechaostheory 81 Nov 15, 2012 05:40 PM

Pretty solid tab. Can you add the 2nd solo please? And add the lyrics at the bottom with the chords above that too please!

0 reply
VoXBOss2011 130 Dec 31, 2012 01:02 AM

Thanks for posting man! I absolutely love this track and you have helped me a bunch, it's greatly appreciated. Thank you!

0 reply
henson45 10 Feb 16, 2014 12:39 PM

thanks! it is an awesome tab! C: can you put the seccond solo?

guest
You may want to rate the tab now too:
select rating
Wanna post a correction for this tab? Suggest correction