Oops, an error
Loading. Please wait.

Shadow Life tab

version 2
version 2

Whole song

Interactive

by Slash
9,297 views 18 this week
3 commentsread comments
1 2 3 4 5
x 4
add to favorites
×
Save as Personal and add changes to this tab that will be seen only by you. Learn more ›
×
You can save this tab as Personal to edit and correct it or add notes. All changes will be seen only by you. Learn more »
launch autoscroll
font size
0
reset
how to read this tab
guitar tuner
edit
Autoscroll
slow
fast
+/-
esc
set tempo
stop
Author
Difficulty
-------------------------------------------------------------------------------
                             Slash - Shadow Life
-------------------------------------------------------------------------------

Tabbed by: Peavel
Tuning: Standard

Intro 
e|-----------------|-----------------|----------------|-----------------|
B|---------4-3-----|---------4-3-----|--------4-------|-----------------|
G|-----5-------5---|-----4-------4---|----5-----7-5---|-----4-------4---|
D|---5---5---------|---5---5-------5-|--6---6---------|---5---5---5---5-| 2x
A|-3-------------6-|-----------------|----------------|---------2-------|
E|-----------------|-----------------|-4------------3-|-----------------|

e|-----------------|-----------------|----------------|-----------------|
B|---------4-3-----|---------4-3-----|--------4-------|-----------------|
G|-----5-------5---|-----4-------4---|----5-----7-5---|-7---------------|
D|---5---5---------|---5---5-------5-|--6---6---------|-7-------7-------| 
A|-3-------------6-|-----------------|----------------|-6-------7-------|
E|-----------------|-----------------|-4--------------|---------6-------|


Riff
e|---------------------------------|---------------------------------|
B|---------------------------------|---------------------------------|
G|---------------------------------|---------------------------------|
D|---------------------------------|---------------------------------|
A|-3-----2---------1---------------|-3-----2---------1---------------|
E|-------------3---------1---1-2h3-|-------------3---------1---1-2h3-|

e|---------------------------------|---------------------------------|
B|---------------------------------|---------------------------------|
G|---------------------------------|---------------------------------|
D|---------------------------------|---------------------------------|
A|-3-----2---------1---------------|-3-----2---------1------/6~------|
E|-------------3---------1---1-2h3-|-------------3-------3-----------|

e|---------------------------------|---------------------------------|
B|---------------------------------|---------------------------------|
G|---------------------------------|---------------------------------|
D|---------------------------------|---------------------------------|
A|-3-----2---------1---------------|-3-----2---------1---------------|
E|-------------3---------1---1-2h3-|-------------3---------1---1-2h3-|
  
e|---------------------------------|---------------------------------|
B|---------------------------------|---------------------------------|
G|---------------------------------|---------------------------------|
D|---------------------------------|-----------------3-------1-------|
A|-3-----2---------1---------------|-------------3-------------------|
E|-------------3---------1-----2---|-3-----2-------------------------|


Verse 1
e|---------------------------------|---------------------------------|
B|---------------------------------|---------------------------------|
G|-5-------------------------------|---------------------------------|
D|-5-------------------------------|-8---8---------------------------|
A|-3-----------------------3-1-----|-6---6-------------------3-1-----|
E|-----------------------------3-1-|-----------------------------3-1-|
  
e|---------------------------------|---------------------------------|
B|---------------------------------|---------------------------------|
G|---------------------------------|---------------------------8-----|
D|-3---3---------------------------|-6---------------8---------8-----|
A|-3---3-------------------3-1-----|-6---------------8---------6-----|
E|-1---1-----------------------3-1-|-4---------------6---------------|

e|---------------------------------|---------------------------------|
B|---------------------------------|---------------------------------|
G|-5-------------------------------|---------------------------------|
D|-5-------------------------------|-8---8---------------------------|
A|-3-----------------------3-1-----|-6---6-------------------3-1-----|
E|-----------------------------3-1-|-----------------------------3-1-|

e|---------------------------------|---------------------------------|
B|---------------------------------|---------------------------------|
G|---------------------------------|---------------------------------|
D|-3---3---------------------------|-6---------------8---------------|
A|-3---3-------------------3-1-----|-6---------------8---------------|
E|-1---1-----------------------3-1-|-4---------------6---------------|


Pre-chorus
e|-----------------|-----------------|-------------------------|-----------------|
B|-----------------|-----------------|-------------------------|-----------------|
G|-----------------|-----------------|-------------------------|-----------------|
D|-6-6-6-6-6-6-6-6-|-8-8-8-8-8-8-8-8-|-10-10-10-10-10-10-10-10-|-3-3-3-3-3-3-3-3-|
A|-6-6-6-6-6-6-6-6-|-8-8-8-8-8-8-8-8-|-10-10-10-10-10-10-10-10-|-3-3-3-3-3-3-3-3-|
E|-4-4-4-4-4-4-4-4-|-6-6-6-6-6-6-6-6-|-8--8--8--8--8--8--8--8--|-1-1-1-1-1-1-1-1-|

e|-----------------|-----------------|
B|-----------------|-----------------|
G|-----------------|-----------------|
D|-6-6-6-6-6-6-6-6-|-8---------------|
A|-6-6-6-6-6-6-6-6-|-8---------------|
E|-4-4-4-4-4-4-4-4-|-6---------------|


Chorus
e|------------|------------|------------|------------|
B|------------|------------|------------|------------|
G|-5--5--5--5-|-8--8--8--8-|------------|------------|
D|-5--5--5--5-|-8--8--8--8-|-6--6--6--6-|-5--5--5--5-|
A|-3--3--3--3-|-6--6--6--6-|-6--6--6--6-|-5--5--5--5-|
E|------------|------------|-4--4--4--4-|-3--3--3--3-|

e|------------|------------|------------|------------|
B|------------|------------|------------|------------|
G|-5--5--5--5-|-8--8--8--8-|------------|-8----------|
D|-5--5--5--5-|-8--8--8--8-|-6--6--6--6-|-8----8-----|
A|-3--3--3--3-|-6--6--6--6-|-6--6--6--6-|-6----8-----|
E|------------|------------|-4--4--4--4-|------6-----|


Riff
e|---------------------------------|---------------------------------|
B|---------------------------------|---------------------------------|
G|---------------------------------|---------------------------------|
D|---------------------------------|---------------------------------|
A|-3-----2---------1---------------|-3-----2---------1---------------|
E|-------------3---------1---1-2h3-|-------------3---------1---1-2h3-|

e|---------------------------------|---------------------------------|
B|---------------------------------|---------------------------------|
G|---------------------------------|---------------------------------|
D|---------------------------------|-----------------3-------1-------|
A|-3-----2---------1---------------|-------------3-------------------|
E|-------------3---------1-----2---|-3-----2-------------------------|


Verse 2 
e|---------------------------------|---------------------------------|
B|---------------------------------|---------------------------------|
G|-5-------------------------------|---------------------------------|
D|-5-------------------------------|-8---8---------------------------|
A|-3-----------------------3-1-----|-6---6-------------------3-1-----|
E|-----------------------------3-1-|-----------------------------3-1-|

e|---------------------------------|---------------------------------|
B|---------------------------------|---------------------------------|
G|---------------------------------|---------------------------8-----|
D|-3---3---------------------------|-6---------------8---------8-----|
A|-3---3-------------------3-1-----|-6---------------8---------6-----|
E|-1---1-----------------------3-1-|-4---------------6---------------|

e|---------------------------------|---------------------------------|
B|---------------------------------|---------------------------------|
G|-5-------------------------------|---------------------------------|
D|-5-------------------------------|-8---8---------------------------|
A|-3-----------------------3-1-----|-6---6-------------------3-1-----|
E|-----------------------------3-1-|-----------------------------3-1-|

e|---------------------------------|---------------------------------|
B|---------------------------------|---------------------------------|
G|---------------------------------|---------------------------------|
D|-3---3---------------------------|-6---------------8---------------|
A|-3---3-------------------3-1-----|-6---------------8---------------|
E|-1---1-----------------------3-1-|-4---------------6---------------|


Pre-chorus
e|-----------------|-----------------|-------------------------|-----------------|
B|-----------------|-----------------|-------------------------|-----------------|
G|-----------------|-----------------|-------------------------|-----------------|
D|-6-6-6-6-6-6-6-6-|-8-8-8-8-8-8-8-8-|-10-10-10-10-10-10-10-10-|-3-3-3-3-3-3-3-3-|
A|-6-6-6-6-6-6-6-6-|-8-8-8-8-8-8-8-8-|-10-10-10-10-10-10-10-10-|-3-3-3-3-3-3-3-3-|
E|-4-4-4-4-4-4-4-4-|-6-6-6-6-6-6-6-6-|-8--8--8--8--8--8--8--8--|-1-1-1-1-1-1-1-1-|

e|-----------------|-----------------|
B|-----------------|-----------------|
G|-----------------|-----------------|
D|-6-6-6-6-6-6-6-6-|-8---------------|
A|-6-6-6-6-6-6-6-6-|-8---------------|
E|-4-4-4-4-4-4-4-4-|-6-----------6\--|


Chorus
e|------------|------------|------------|------------|
B|------------|------------|------------|------------|
G|-5--5--5--5-|-8--8--8--8-|------------|------------|
D|-5--5--5--5-|-8--8--8--8-|-6--6--6--6-|-5--5--5--5-|
A|-3--3--3--3-|-6--6--6--6-|-6--6--6--6-|-5--5--5--5-|
E|------------|------------|-4--4--4--4-|-3--3--3--3-|

e|------------|------------|------------|------------|
B|------------|------------|------------|------------|
G|-5--5--5--5-|-8--8--8--8-|------------|-8----------|
D|-5--5--5--5-|-8--8--8--8-|-6--6--6--6-|-8----8-----|
A|-3--3--3--3-|-6--6--6--6-|-6--6--6--6-|-6----8-----|
E|------------|------------|-4--4--4--4-|------6-----|


Bridge
e|-----------------|-----------------|-----------------|-----------------|
B|-----------------|-----------------|-----------------|-----------------|
G|-----------------|-----------------|-5-5-5-----------|-----------------|
D|-5-5-5-----------|-6-6-6-----------|-5-5-5-----------|-3-3-----5-5-----|
A|-5-5-5-----------|-6-6-6-----------|-3-3-3-----------|-3-3-----5-5-----|
E|-3-3-3-----------|-4-4-4-----------|-----------------|-1-1-----3-3-----|


e|-----------------|-------------------|
B|-----------------|-------------------|
G|-----------------|-------------------|
D|-6-6-6-6-6-6-6-6-|-8-8-8-8-9-9-13-12-|
A|-6-6-6-6-6-6-6-6-|-8-8-8-8-9-9-13-13-|
E|-4-4-4-4-4-4-4-4-|-6-6-6-6-7-7-11-10-|


Solo Guitar 1
e|-------------------------|-----------------|-----------------|-----------------|
B|-------------------------|-----------------|-----------------|-----------------|
G|-------------------------|-----------------|-----------------|-8-8-8-8---------|
D|-10-10-10-10-10-10-10-10-|-6-6-6-6-6-6-6-6-|-3-3-3-3-3-3-3-3-|-8-8-8-8-8-8-8-8-| 2x
A|-10-10-10-10-10-10-10-10-|-6-6-6-6-6-6-6-6-|-3-3-3-3-3-3-3-3-|-6-6-6-6-8-8-8-8-|
E|-8--8--8--8--8--8--8--8--|-4-4-4-4-4-4-4-4-|-1-1-1-1-1-1-1-1-|---------6-6-6-6-|

e|-----------------|-----------------|-----------------|-----------------|
B|-----------------|-----------------|-----------------|-----------------|
G|-----------------|-----------------|-5-5-5-5-5-5-5-5-|-----------------|
D|-6-6-6-6-6-6-6-6-|-5-5-5-5-5-5-5-5-|-5-5-5-5-5-5-5-5-|-3-3-3-3-3-3-3-3-|
A|-6-6-6-6-6-6-6-6-|-5-5-5-5-5-5-5-5-|-3-3-3-3-3-3-3-3-|-3-3-3-3-3-3-3-3-|
E|-4-4-4-4-4-4-4-4-|-3-3-3-3-3-3-3-3-|-----------------|-1-1-1-1-1-1-1-1-|

e|-----------------|-----------------|
B|-----------------|-----------------|
G|-----------------|-----------------|
D|-6-6-6-6-6-6-6-6-|-8---------------|
A|-6-6-6-6-6-6-6-6-|-8---------------|
E|-4-4-4-4-4-4-4-4-|-6---------------|


Solo Guitar 2
e|---------------------------------|---------------------------------|
B|---------------------------------|---------------------------------|
G|---------------------------------|---------------------------------|
D|---------------------------------|---------------------------------|
A|------------------------10p8-----|-10--------8---------------------|
E|-8~---------11~--------------11--|-----8~----------11--10-11-13-10-|
                                                      pm .  .  .  .

e|--------------------------------------------|-----------------------------------------|
B|--------------------------------------------|-----------------------------------------|
G|--------------------------------------------|-------15---13b--12--13p12-8-13p12-10-12-|
D|-13-15-13b----13--12-13p12---12-------12----|-12--------------------------------------|
A|--------------------------15----13-15----13-|----13-----------------------------------|
E|--------------------------------------------|-----------------------------------------|

e|------------------------------15---|-----13----13-----------------------|
B|-----------------------------------|--------16----16b----16-13----16-13-|
G|-----------13--13----16-13---------|------------------------------------|
D|-12--12--------------------15------|------------------------------------|
A|-----------------------------------|------------------------------------|
E|-----------------------------------|------------------------------------|

e|-15-------------------15-13--------------------------|
B|-----13-13---13-16-13-------16-13-16-----------------|
G|-------------------------------------12--17-12-17-12-|
D|-----------------------------------------------------|
A|-----------------------------------------------------|
E|-----------------------------------------------------|

e|-----------------------------------------------------------16-|
B|-----------------------------------------16----16-18-16-18----|
G|-----------------------15----15-17-15-17----17----------------|
D|-17--15-17-15----15-17----17----------------------------------|
A|--------------17----------------------------------------------|
E|----------------------------|---------------------------------|

e|-18----16-15-16-13-16-15-16-13-15----13-|-15-16-13-15----13-------------------------------|
B|----------------------------------16----|-------------16----15-16-15-16p15p13-15-13-13----|
G|----------------------------------------|-------------------------------------------15b---|
D|----------------------------------------|-------------------------------------------------|
A|----------------------------------------|-------------------------------------------------|
E|----------------------------------------|-------------------------------------------------|

e|-----------------------------------------------------|---------------------------------|
B|-16-13---16-13---16-15-16p15p13-16-------------------|---------------------------------|
G|----15b-----15b--------------------15-17-14-15p14p12-|----12---------------------------|
D|-----------------------------------------------------|-15----15p13-13----15----15~\----|
A|-----------------------------------------------------|----------------15----15---------|
E|-----------------------------------------------------|---------------------------------|

e|--------------------------------|---------------15--15--------|
B|-18------16p15h16-16----15--13--|-15--16-15-------------------|
G|--------------------------------|-----------15----------------|
D|--------------------------------|-----------------------------|
A|--------------------------------|-----------------------------|
E|--------------------------------|-----------------------------|


Riff
e|---------------------------------|---------------------------------|
B|---------------------------------|---------------------------------|
G|---------------------------------|---------------------------------|
D|---------------------------------|---------------------------------|
A|-3-----2---------1---------------|-3-----2---------1---------------|
E|-------------3---------1---1-2h3-|-------------3---------1---1-2h3-|

e|---------------------------------|---------------------------------|
B|---------------------------------|---------------------------------|
G|---------------------------------|---------------------------------|
D|---------------------------------|---------------------------------|
A|-3-----2---------1---------------|-3-----2---------1------/6~------|
E|-------------3---------1---1-2h3-|-------------3-------3-----------|
  
e|---------------------------------|---------------------------------|
B|---------------------------------|---------------------------------|
G|---------------------------------|---------------------------------|
D|---------------------------------|---------------------------------|
A|-3-----2---------1---------------|-3-----2---------1---------------|
E|-------------3---------1---1-2h3-|-------------3---------1---1-2h3-|
  
e|---------------------------------|---------------------------------|
B|---------------------------------|---------------------------------|
G|---------------------------------|---------------------------------|
D|---------------------------------|-----------------3---------------|
A|-3-----2---------1---------------|-------------3-------------------|
E|-------------3---------1-----2---|-3-----2-------------------------|
   

Chorus
e|------------|------------|------------|------------|
B|------------|------------|------------|------------|
G|-5--5--5--5-|-8--8--8--8-|------------|------------|
D|-5--5--5--5-|-8--8--8--8-|-6--6--6--6-|-5--5--5--5-| 3x
A|-3--3--3--3-|-6--6--6--6-|-6--6--6--6-|-5--5--5--5-|
E|------------|------------|-4--4--4--4-|-3--3--3--3-|

e|------------|------------|------------|------------|
B|------------|------------|------------|------------|
G|-5--5--5--5-|-8--8--8--8-|------------|-8----------|
D|-5--5--5--5-|-8--8--8--8-|-6--6--6--6-|-8----8-----|
A|-3--3--3--3-|-6--6--6--6-|-6--6--6--6-|-6----8-----|
E|------------|------------|-4--4--4--4-|------6-----|


Riff
e|---------------------------------|---------------------------------|
B|---------------------------------|---------------------------------|
G|---------------------------------|---------------------------------|
D|---------------------------------|---------------------------------|
A|-3-----2---------1---------------|-3-----2---------1---------------|
E|-------------3---------1---1-2h3-|-------------3---------1---1-2h3-|

e|---------------------------------|---------------------------------|
B|---------------------------------|---------------------------------|
G|---------------------------------|---------------------------------|
D|---------------------------------|---------------------------------|
A|-3-----2---------1---------------|-3-----2---------1------/6~------|
E|-------------3---------1---1-2h3-|-------------3-------3-----------|
  
e|---------------------------------|---------------------------------|
B|---------------------------------|---------------------------------|
G|---------------------------------|---------------------------------|
D|---------------------------------|---------------------------------|
A|-3-----2---------1---------------|-3-----2---------1---------------|
E|-------------3---------1---1-2h3-|-------------3---------1---1-2h3-|
  
e|---------------------------------|---------------------------------|
B|---------------------------------|---------------------------------|
G|---------------------------------|---------------------------------|
D|---------------------------------|-----------------3-----1---------|
A|-3-----2---------1---------------|-------------3-------------------|
E|-------------3---------1-----2---|-3-----2-------------------------|

e|---------------------------------|
B|---------------------------------|
G|-5-------------------------------|
D|-5-------------------------------|
A|-3-------------------------------|
E|---------------------------------|


************************************

| /   slide up
| \   slide down
| h   hammer-on
| p   pull-off
| ~   vibrato
| +   harmonic
| x   Mute note
| b   Bend
| pb  Pre-bend
| br  Bend release
| pbr Pre-bend release
| brb Bend release bend

************************************

            
            
Suggest correction
Creating personal tab
Creating personal tab
You can edit any tab online and save it as your Personal.

You can edit, replace or remove any tab part or add personal notes – all changes will be seen only by you.

Personal tabs can be accessed anytime from any device, even offline.
Learn more »
comments
print report bad tab
3 comments total.
0 reply
qwt159159 10 Sep 29, 2014 09:33 PM

It's Standard tuned! Thanks a lot

0 reply
ZLambertMusic 10 Jul 06, 2015 12:14 PM

Clearly wrong. This is so wrong on so many levels.... The song is played a half step down, and the intro is all wonky, try again though

0 reply
Peavel 306 Jul 13, 2015 01:31 AM

I know that the song is played a half-step down, but i wrote it for those one who want to play it in standard tuning. Wonky intro? I don´t think.. it is good way how to play it in this tuning

guest
You may want to rate the tab now too:
select rating
Wanna post a correction for this tab? Suggest correction