Oops, an error
Loading. Please wait.

Standing In The Sun tab

version 2
version 2

Whole song

Interactive

by Slash
1,736 views 1 this week
no commentswrite comment
1 2 3 4 5
x 3
add to favorites
×
Save as Personal and add changes to this tab that will be seen only by you. Learn more ›
×
You can save this tab as Personal to edit and correct it or add notes. All changes will be seen only by you. Learn more »
launch autoscroll
font size
0
reset
how to read this tab
guitar tuner
edit
Autoscroll
slow
fast
+/-
esc
set tempo
stop
Author
Difficulty
Tabbers playing skills
intermediate
advanced ++
-------------------------------------------------------------------------------
                             STANDING IN THE SUN - Slash
-------------------------------------------------------------------------------


Tabbed by: Isaias Garcia (TexasFury)

Tuning: Standard


Guitar - lead

     m.61                                                 
     Q.      E   Q    Q        E   Q.      Q     Q      
E||-------------------------|--------------------------||
B||-------------------------|--------------4-----5-----||
G||--4~------4b--L----4b----|--Lb--5b------6b----7b----||
D||-------------------------|--------------------------||
A||-------------------------|--------------------------||
E||-------------------------|--------------------------||


  Guitar Solo
  H          E  E    S  S  S  S     H          Q      S S  S  S  
--------------------------------|-----------------------9-11----|
--7----------L------------------|--10b---------Lb~----L------11-|
--9b~--------L--9\--11-11p-9----|-------------------------------|
-----------------------------11-|-------------------------------|
--------------------------------|-------------------------------|
--------------------------------|-------------------------------|


                                                           |--3--|  
   H          E.   S  E  E      Q       E   S  S Q     E   S  S  S  
----------------------------|---------------9-11-------------------|
---Lb~--------L---11b-L--9--|--11b~-----Lb-------9b----9-----------|
----------------------------|-----------------------------11p-9----|
----------------------------|-----------------------------------11-|
----------------------------|--------------------------------------|
----------------------------|--------------------------------------|


                                 |---3--|  
   E    E   E  E    Q      E     S  S   S  
--------------------------------14--------|
--10b--------------17b----17b~-----17p-14-|
-------11~--L--L/-------------------------|
------------------------------------------|
------------------------------------------|
------------------------------------------|


                            W              
   S   S   S  S  S  S  S  S Q     E   E    
------------------------------------------|
------------------------------------------|
--16b--Lb-14----16----14-16-L----14--16b--|
-------------16----16---------------------|
------------------------------------------|
------------------------------------------|


                              |---3--|        
  E    E   S  E.    E    E    S   S  S  S  S  
---------------------------------------------|
---------------------------------------------|
--Lb--16b--L-16b---16b--16~---Lp-14----14-16-|
------------------------------------16-------|
---------------------------------------------|
---------------------------------------------|


                   |--3--|                   |---3--|   
   E.    S  S  S   S  S  S   E    S  S  E    S  S   S   
---------------------------------14---------14---------|
------------------------------------17--Lb-----14h-17h-|
---Lb---14~-L-16p-14----14h-16~------------------------|
---------------------16--------------------------------|
-------------------------------------------------------|
-------------------------------------------------------|


        |---3--|        |---3--|        |---3--|        |---3--|  
   E    S  S   S   E    S  S   S   E    S  S   S   E    S  S   S  
-------14--------------14--------------14--------------14--------|
---Lb-----17p-14h-17b-----17p-14h-17b-----17p-14h-17b-----17p-14-|
-----------------------------------------------------------------|
-----------------------------------------------------------------|
-----------------------------------------------------------------|
-----------------------------------------------------------------|


        |---3--|        |---3--|        |---3--|        |---3--|  
   E    S  S   S   E    S  S   S   E    S  S   S   E    S  S   S  
-------16--------------16--------------16--------------16--------|
--19b-----19p-16h-19b-----19p-16h-19b-----19p-16h-19b-----19p-16-|
-----------------------------------------------------------------|
-----------------------------------------------------------------|
-----------------------------------------------------------------|
-----------------------------------------------------------------|


        |---3--|       |---3--|       |---3--|       |---3--|  
   E    S  S   S  E    S  S   S  E    S  S   S  E    S  S   S  
--17~--14--------17~--14--------17~--14--------17~--14--------|
----------17p-14---------17p-14---------17p-14---------17p-14-|
--------------------------------------------------------------|
--------------------------------------------------------------|
--------------------------------------------------------------|
--------------------------------------------------------------|


        |---3--|       |---3--|                     
   E    S  S   S  E    S  S   S  Q      E    S   S  
--19p--16--------19p--16--------19b----19b--19p-17-|
----------19p-16---------19p-16--------------------|
---------------------------------------------------|
---------------------------------------------------|
---------------------------------------------------|
---------------------------------------------------|


   S  E.   S  E.    S   S  E   E.    S  
--19-17b---L-17~--------------------21-|
-------------------19p-17-19~--L\------|
---------------------------------------|
---------------------------------------|
---------------------------------------|
---------------------------------------|


          ^   ^   ^                                
          |---3---|                       |--3--|  
   Q      E   E   E   S  S   S  S  S  S   S  S  S  
---Lb----21--20--19-------------------------------|
---------------------21-21p-19----21-19s-17----19-|
-------------------------------20-----------18----|
--------------------------------------------------|
--------------------------------------------------|
--------------------------------------------------|


   |---3---|   |---3---|   |---3---|  |---3---|  |---3--|  |--3--|              
   S   S   S   S   S   S   S   S   S  S   S   S  S   S  S  S  S  S  S   S  E    
-------------------------------------------------------------------------------|
--16h-17p-16h-17p-16h-17p-16h-17p-16-14h-16p-14------------------------17------|
------------------------------------------------16p-14----16----14-16b----16b--|
-------------------------------------------------------16----16----------------|
-------------------------------------------------------------------------------|
-------------------------------------------------------------------------------|


   S  S  E    S  S  S    S   S  E   S  Q         H         E   Q.       
--14-----------------------------------------|-------------------------|
-----14-17b--17-14--------------------17b----|---Lb--------L--17b------|
-------------------16br--Lb-14-16--14--------|-------------------------|
---------------------------------------------|-------------------------|
---------------------------------------------|-------------------------|
---------------------------------------------|-------------------------|


   W                     Q      Q      Q      E    E    
---------------------|---------------------------------|
---L~----------------|--19-----19-----19-----19--------|
---------------------|--18b----18b----18b----18b--18~--|
---------------------|---------------------------------|
---------------------|---------------------------------|
---------------------|---------------------------------|


   Q     E    Q.       Q       
-----------------------------||
-----------------------------||
---L----14b------------------||
-------------16~------16\----||
-----------------------------||
-----------------------------||




Guitar - rhythm right - Slash

     Intro                                                                       
     E  S  S S  S S  S E  E  S  S S  S    E  S  S S  S S  S E  E  S  S S  S  3Xs
E||------------------------------------|-------------------------------------||
B||------------------------------------|-------------------------------------||
G||*-----------------------------------|------------------------------------*||
D||*-----------------------------------|------------------------------------*||
A||------------------------------------|-------------------------------------||
E||--2--0h-2-0h-2-2p-0-2--2--0h-2-2p-0-|--2--0h-2-0h-2-2p-0-2--2--0h-2-2p-0--||


  E  S  S S  S S  S E  E  S  S S S      S  S  E  S S  S S S  S  S S   E    E   
-----------------------------------|------------------------------------------||
-----------------------------------|------------------------------------------||
-----------------------------------|--<>4b-Lb-2--4-2b-----2b------------------||
-----------------------------------|------------------4-2----4p-2---2g4--2g4--||
-----------------------------------|------------------------------4-----------||
--2--0h-2-0h-2-2p-0-2--2--0h-2-2-x-|------------------------------------------||


    Verse 1                                                                      
    E  S  S S  S S  S E  E  S  S S  S    E  S  S S  S S  S E  E  S  S S  S  3Xs
||------------------------------------|-------------------------------------||
||------------------------------------|-------------------------------------||
||*-----------------------------------|------------------------------------*||
||*-----------------------------------|------------------------------------*||
||------------------------------------|-------------------------------------||
||--2--0h-2-0h-2-2p-0-2--2--0h-2-2p-0-|--2--0h-2-0h-2-2p-0-2--2--0h-2-2p-0--||


                                                               PM PM PM PM  
  E  S  S S  S S  S E  E  S  S S  S    E  S  S S  S S  S E  E  S  S  S  S   
------------------------------------|--------------------------------------|
------------------------------------|--------------------------------------|
------------------------------------|--------------------------------------|
------------------------------------|--------------------------------------|
------------------------------------|--------------------------------------|
--2--0h-2-0h-2-2p-0-2--2--0h-2-2p-0-|--2--0h-2-0h-2-2p-0-2--2--0--2--2--0--|


     PM PM PM   PM PM       PM PM PM PM       PM PM                            
  E  S  S  S  S S  S  E  E  S  S  S  S     E  S  S  S  S S  S E  E  S  S S  S  
----------------------------------------|-------------------------------------|
----------------------------------------|-------------------------------------|
----------------------------------------|-------------------------------------|
----------------------------------------|-------------------------------------|
----------------------------------------|-------------------------------------|
--2--0--2--0h-2-2--0--2--2--0--2--2--0--|--2--0--2--0h-2-2p-0-2--2--0h-2-2p-0-|


                          PM PM PM PM                                       
  E  S  S S  S S  S E  E  S  S  S  S     E  S  S S  S S  S E  E  S  S S  S  
--------------------------------------|------------------------------------|
--------------------------------------|------------------------------------|
--------------------------------------|------------------------------------|
--------------------------------------|------------------------------------|
--------------------------------------|------------------------------------|
--2--0h-2-0h-2-2p-0-2--2--0--2--2--0--|--2--0h-2-0h-2-2p-0-2--2--0h-2-2p-0-|


  E  S  S S  S S  S E  E  S  S S  S    E  S  S S  S S  S E  E  S  S S  S  
------------------------------------|------------------------------------|
------------------------------------|------------------------------------|
------------------------------------|------------------------------------|
------------------------------------|------------------------------------|
------------------------------------|------------------------------------|
--2--0h-2-0h-2-2p-0-2--2--0h-2-2p-0-|--2--0h-2-0h-2-2p-0-2--2--0h-2-2p-0-|


                                                                pick scrape 
  E  S  S S  S S  S E  E  S  S S  S    E  S  S S  S S  S E  E   Q           
------------------------------------|--------------------------------------||
------------------------------------|--------------------------------------||
------------------------------------|---------------------------x\---------||
------------------------------------|---------------------------x\---------||
------------------------------------|--------------------------------------||
--2--0h-2-0h-2-2p-0-2--2--0h-2-2p-0-|--2--0h-2-0h-2-2p-0-2--2--------------||


  Chorus 1                                                                
  H.           E  E     H        E  E  E  E     H        Q.     E   
---------------------|-----------------------|------------------2--|
--3------------L--3--|-----------------------|------------------2--|
--2------------L--2--|--2--------2--2--2--4--|--L--------4------3--|
--0------------L--0--|--2--------2--2--2--4--|--L--------4------4--|
--0------------L--0--|--0--------0--0--0--2--|--L--------2---------|
---------------------|-----------------------|---------------------|


            pick scrape                                                       
  H         Q              Q        H.           E  E     H.           E  E   
--L------------------------------|---------------------|---------------------|
--L------------------------------|--3------------L-----|------------------4--|
--L---------x\-------------------|--2------------L--2--|--L------------L--4--|
--L---------x\-------------------|--0------------L--2--|--L------------L--4--|
---------------------------------|--0------------L--0--|--L------------L--2--|
-----------------------15g17\----|---------------------|---------------------|


               |--3--|                                                          
  H.           E  E  E     H.           E  E        E  E  S E  S E  S S S S E   
------------------------|--2------------L------|-------------------------------|
--L---------------------|--2------------L------|-------7----7----7----7-L---7--|
--L------------4--4--4--|--3------------L------|---------------6----------6----|
--L------------4--4--4--|--4------------L------|--4g8-----8---------8----------|
--L------------2--2--2--|------------------9\--|-------------------------------|
------------------------|----------------------|-------------------------------|


    E  E  S E  S E  S S S S S S       E  E   S E  S E   S S S S  E   
--------------------------------|-----------------------------------|
-------7----7----7----7-L---7---|--------9-----9----9-----9-L-9-----|
---------------8----------8-----|-----------------8-------8-L-8-----|
--8g9-----9---------9---------9-|--9g10-----10---------10-------10--|
--------------------------------|-----------------------------------|
--------------------------------|-----------------------------------|


   S  S  S  S  S  S S  S S S   S S  S  S E    
---------------------------------------------||
--10-10--------------------------------------||
--------11p-9-11-11-9----9-9b----------------||
----------------------11------11-8-11-11-7\--||
---------------------------------------------||
---------------------------------------------||


  Verse 2                                                                           
       PM   PM PM PM PM                                 PM PM                  
  S  S S  S S  S  S  S  E  E  S  S S  S    E  S  S S  S S  S  E  E  S  S S  S  
----------------------------------------|-------------------------------------|
----------------------------------------|-------------------------------------|
----------------------------------------|-------------------------------------|
----------------------------------------|-------------------------------------|
----------------------------------------|-------------------------------------|
--2--2-0h-2-0--2--2--0--2--2--0h-2-2p-0-|--2--0h-2-0h-2-2--0--2--2--0h-2-2p-0-|


               PM PM       PM PM PM PM            PM PM PM PM PM              
  E  S  S S  S S  S  E  E  S  S  S  S     E  S  S S  S  S  S  S  S S S Q      
---------------------------------------|-------------------------------------|
---------------------------------------|---------------------------4-2-Lb----|
---------------------------------------|---------------------------4-2-Lb----|
---------------------------------------|----------------4--2--2--4-----------|
---------------------------------------|-------------------------------------|
--2--0h-2-0h-2-2--0--2--2--0--2--2--0--|--2--0h-2-0h-2-----------------------|


     PM                                                                   
  E  S  S S  S S  S E  E  S  S S  S    E  S  S S  S S  S E  E  S  S S  S  
------------------------------------|------------------------------------|
------------------------------------|------------------------------------|
------------------------------------|------------------------------------|
------------------------------------|------------------------------------|
------------------------------------|-------------------------------2p-0-|
--2--0h-2-0h-2-2p-0-2--2--0h-2-2p-0-|--2--0h-2-0h-2-2p-0-2--2--0h-2------|


                                                                pick scrape 
  E  S  S S  S S  S E  E  S  S S  S    E  S  S S  S S  S E  E   Q           
------------------------------------|-----------------------------------||
------------------------------------|-----------------------------------||
------------------------------------|---------------------------x\------||
------------------------------------|---------------------------x\------||
------------------------------------|-----------------------------------||
--2--0h-2-0h-2-2p-0-2--2--0h-2-2p-0-|--2--0h-2-0h-2-2p-0-2--2-----------||


  Chorus 2                                                                    
  H        E  E  E  E     H        E  E  E  E     H        E  E  E  E   
-----------------------|-----------------------|-----------------------|
--3--------L--3--3--3--|-----------------------|-----------------------|
--2--------L--2--2--2--|--2--------2--2--2--4--|--L--------L--4--4--4--|
--0--------L--0--0--0--|--2--------2--2--2--4--|--L--------L--4--4--4--|
--0--------L--0--0--0--|--0--------0--0--0--2--|--L--------L--2--2--2--|
-----------------------|-----------------------|-----------------------|


  H        E  E  Q       H        E  E  E  E     H.           E  E   
--2--------L--2--2----|-----------------------|---------------------|
--2--------L--2--2----|--3--------3--3--3--3--|---------------------|
--3--------L--3--3----|--2--------2--2--2--2--|--2------------L--4--|
--4--------L--4--4----|--0--------0--0--0--0--|--2------------L--4--|
--4--------L----------|--0--------0--0--0--0--|--0------------L--2--|
--2--------L----------|-----------------------|---------------------|


                                                  Bridge                        
                                                     PM    PM              
  H.           E  E     Q.     E  E  E  E  E      E  E  E  E  E  E  E  E   
------------------2--|---------2--------------||--------------------------|
------------------2--|---------2--------------||--------------------------|
--L------------L--3--|------------------------||--------------------------|
--L------------L--4--|--4---------4--4--4--4--||--6-----6-----4--6--4--6--|
--L------------L-----|--4---------4--4--4--4--||--4--4--4--4--4-----4-----|
---------------------|--2---------2--2--2--2--||--------------------------|


           PM                                                                  
  E  E  E  E  E  E  E  E     Q    E  E  E  E  E  E     E  E  Q    E  E  E  E   
--------------------------|-------------------------|-------------------------|
--------------------------|-------------------------|-------------------------|
--------------4--6--------|-------------2--4-----4--|--L--2-------2-----------|
-----4--6-----4--6--------|--4----4--4--2--4--2--4--|--L--2--4----2--4--4-----|
--4--4--4--4--4--4--4--0--|--2----2-----2--2--2-----|--------2-------2--2--2--|
--------------------------|-------------------------|----------------------2--|


  E  E  E  E  E  E  E  E     E  E  E  E  E  E  E  E     Q.     E  Q    Q     
--------------------------|--------------------------|----------------------|
--------------------------|--------------------------|----------------------|
--------------4-----4-----|--------------------------|----------------------|
--6-----6--6--4--6--4--6--|--L--4--6-----4--6--6-----|----------------------|
--4--4--4--4--4--4--4--4--|--L--4--4--4--4--4--4--4--|--2------3--L----4----|
--------------------------|-----------------------2--|----------------------|


                          Guitar Solo                                  
  E  Q.     Q    Q        E  S  S S  S S  S E  E  S  S S  S    E  S  S S  S S  S E  E  S  S S  S  5Xs
----------------------||------------------------------------|-------------------------------------||
----------------------||------------------------------------|-------------------------------------||
----------------------||*-----------------------------------|------------------------------------*||
----------------------||*-----------------------------------|------------------------------------*||
--L--5------6----7----||------------------------------------|-------------------------------------||
----------------------||--2--0h-2-0h-2-2p-0-2--2--0h-2-2p-0-|--2--0h-2-0h-2-2p-0-2--2--0h-2-2p-0--||


  E  S  S S  S S  S E  E  S  S S  S    E  S  S S  S S  S E   E       Q      
------------------------------------|--------------------------------------||
------------------------------------|--------------------------------------||
------------------------------------|------------------------x\------------||
------------------------------------|------------------------x\------------||
------------------------------------|----------------------------10g12\----||
--2--0h-2-0h-2-2p-0-2--2--0h-2-2p-0-|--2--0h-2-0h-2-2p-0-2-----------------||


  Chorus 3                                                                   
  H.           E  E     H        E  E  E  E     Q    Q    E  E  E  E   
---------------------|-----------------------|---------------------2--|
--3------------L--3--|-----------------------|---------------------2--|
--2------------L--2--|--2--------L--------4--|--4----4----4--4--4--3--|
--0------------L--0--|--2--------L--------4--|--4----4----4--4--4--4--|
--0------------L--0--|--0--------L--0--0--2--|--2----2----2--2--2-----|
---------------------|-----------------------|------------------------|


  Q    E  E  E  E  E      E      Q    Q    E  E  E  E   
--2---------------------------|------------------------|
--2---------------------------|--3----3----3--3--3-----|
--3-------4--L--3--L----------|--2----2----2--2--2-----|
--4-------4--L--4--L----------|--0----0----0--0--0-----|
----------------------10g12\--|--0----0----0--0--0--0--|
-------2----------------------|------------------------|


                  pick scrape                             pick scrape         
  Q    E  Q.      E              E      Q    E  E  E  E   E              E    
-------------------------------------|---------------------------------------|
-------------------------------------|---------------------------------------|
--2----2--2-------x\-----------------|--4----4--4--4--4---x\-----------------|
--2----2--2-------x\-----------------|--4----4--4--4--4---x\-----------------|
--0----0--0------------------10g12\--|--2----2--2--2--2--------------10g12\--|
-------------------------------------|---------------------------------------|


  E   S S  E  E   Q      E    E      E  E  E  E  E  E  E  E   
----------------------------------|--------------------------|
-----------------------------(0)--|--3--3--3--3--3--3--3-----|
-----------------------------(0)--|--2--2--2--2--2--2--2-----|
-----------------------------(0)--|--0--0--0--0--0--0--0-----|
--7b--7-7b-L--7b--7b~-------------|--0--0--0--0--0--0--0--0--|
-------------------------7\-------|--------------------------|


  E  E  Q    E  E  E   E      E   E  E   E  E  E  E  E   
---------------------------|----------------------------|
----------------------(0)--|----------------------------|
--2--2--2----2--2--2--(0)--|------4------4--L--4--4--2--|
--2--2--2----2--2--2--(0)--|------4------4--L--4--4--2--|
--0--0--0----0--0--0-------|--5b------------------------|
---------------------------|---------5b-----------------|


  E  E  E  E  Q    E   E        E  E  E  E  E  S  S  S  S  S S  
-----------2--2----4-------|-----------------------------------|
--------0--2--2----4-------|-------7--8--7--L------------------|
-----3--------3----3-------|-------7--7--7--L--9b-Lb-9b-Lb-7---|
--4-------------------(0)--|-------7--7--7--L----------------9-|
--4-------------------(0)--|--7g9------------------------------|
---------------------------|-----------------------------------|


   E   E  E   E   Q     E  E     Q    E  E  E  E  E  E     S E  S E  S S S S E  E  E
------------------------------|-------------------------|-----------------------------|
--10--10-----10---L----10-----|-------------------------|-----------------------------|
---9---9------9---L-----9-----|--4----4--4--4--4--4--4--|----4----4----4-----4--4--4--|
---7---7------7---L-----7-----|--4----4--4--4--4--4--4--|----4----4----4-----4--4--4--|
----------0----------------0--|--2----2--2--2--2--2--2--|--0-2--0-2--0-2-L-0-2--2--2--|
------------------------------|-------------------------|-----------------------------|

    
    Outro                                                                   
    E  S  S S S S S E  E  S  S  S S    E  S  S S S S S E  E  S  S  S S  7Xs
||----------------------------------|-----------------------------------||
||----------------------------------|-----------------------------------||
||*---------------------------------|----------------------------------*||
||*-4--2h-4-2---2---4--4--2h-4p-2---|--4--2h-4-2---2---4--4--2h-4p-2---*||
||------------4---4---------------4-|------------4---4---------------4--||
||----------------------------------|-----------------------------------||



  E  S  S S S S S E  E  S  S  S S    E  S  S S S S S E  E  S  E.   
----------------------------------|-------------------------------||
----------------------------------|-------------------------------||
----------------------------------|-------------------------------||
--4--2h-4-2---2---4--4--2h-4p-2---|--4--2h-4-2---2---4--4--2h-4---||
------------4---4---------------4-|------------4---4--------------||
----------------------------------|-------------------------------||




Guitar - rhythm left - Myles

     Intro - m.7                                                         
     W                   W                   W                 
E||--2----------------|-------------------|--4----------------|
B||--2----------------|--4----------------|--4----------------|
G||--3----------------|--4----------------|--5----------------|
D||--4----------------|--4----------------|--6----------------|
A||-------------------|--6----------------|-------------------|
E||-------------------|-------------------|-------------------|


                       Verse 1                                                        
  W                    W                   W                   W                 
-------------------||--2----------------|-------------------|--4----------------|
--4----------------||--2----------------|--4----------------|--4----------------|
--4----------------||--3----------------|--4----------------|--5----------------|
--4----------------||--4----------------|--4----------------|--6----------------|
--6----------------||-------------------|--6----------------|-------------------|
-------------------||-------------------|-------------------|-------------------|


  W                   W                   W                   W                 
-------------------|--2----------------|-------------------|--4----------------|
--4----------------|--2----------------|--4----------------|--4----------------|
--4----------------|--3----------------|--4----------------|--5----------------|
--4----------------|--4----------------|--4----------------|--6----------------|
--6----------------|-------------------|--6----------------|-------------------|
-------------------|-------------------|-------------------|-------------------|


  W                   E  S S E  S S S S E  S S S S  
-------------------|-------------------------------|
--4----------------|--2--x-x-2--x-x-x-x-2--x-2-x-x-|
--4----------------|--3--x-x-3--x-x-x-x-3--x-3-x-x-|
--4----------------|--4--x-x-4--x-x-x-x-4--x-4-x-x-|
--6----------------|-------------------------------|
-------------------|-------------------------------|


  E  S S E  S S S S E  S S S S    E  S S E  S S S S E  S S S S  
-------------------------------|--4--x-x-4--x-x-x-x-4--x-4-x-x-|
--4--x-x-4--x-x-x-x-4--x-4-x-x-|--4--x-x-4--x-x-x-x-4--x-4-x-x-|
--4--x-x-4--x-x-x-x-4--x-4-x-x-|--5--x-x-5--x-x-x-x-5--x-5-x-x-|
--4--x-x-4--x-x-x-x-4--x-4-x-x-|--6--x-x-6--x-x-x-x-6--x-6-x-x-|
-------------------------------|-------------------------------|
-------------------------------|-------------------------------|


  E  S S E  S S S S E  S S S S    E  S S E  S S S S E  S S S S  
-------------------------------|-------------------------------|
--4--x-x-4--x-x-x-x-4--x-4-x-x-|--2--x-x-2--x-x-x-x-2--x-2-x-x-|
--4--x-x-4--x-x-x-x-4--x-4-x-x-|--3--x-x-3--x-x-x-x-3--x-3-x-x-|
--4--x-x-4--x-x-x-x-4--x-4-x-x-|--4--x-x-4--x-x-x-x-4--x-4-x-x-|
-------------------------------|-------------------------------|
-------------------------------|-------------------------------|


  E  S S E  S S S S E  S S S S    E  S S E  S S S S E  S S S S  
-------------------------------|--4--x-x-4--x-x-x-x-4--x-4-x-x-|
--4--x-x-4--x-x-x-x-4--x-4-x-x-|--4--x-x-4--x-x-x-x-4--x-4-x-x-|
--4--x-x-4--x-x-x-x-4--x-4-x-x-|--5--x-x-5--x-x-x-x-5--x-5-x-x-|
--4--x-x-4--x-x-x-x-4--x-4-x-x-|--6--x-x-6--x-x-x-x-6--x-6-x-x-|
-------------------------------|-------------------------------|
-------------------------------|-------------------------------|


                              Chorus 1                                         
  E  E  E  E  E  E  E  E      H.           E  E     H.           E  S S  
--------------------------||---------------------|----------------------|
--4--4--4--4--4--4--4--4--||--3------------L-----|----------------------|
--4--4--4--4--4--4--4--4--||--2------------L--2--|--2------------L--4-4-|
--4--4--4--4--4--4--4--4--||--4------------L--2--|--2------------L--4-4-|
--------------------------||--0------------L--0--|--0------------L--2-2-|
--------------------------||---------------------|----------------------|


  H.           E  S S    H.           E  S S    H.           E  S S  
----------------------|--2------------L------|----------------------|
----------------------|--2------------L--3-3-|--3------------L------|
--4------------L------|--3------------L--2-2-|--2------------L--2-2-|
--4------------L------|--4------------L--4-4-|--4------------L--2-2-|
--2------------L------|--4------------L------|--0------------L--0-0-|
------------------2-2-|--2------------L------|----------------------|


  H.           E  S S    H.           E  S S    W                 
----------------------|----------------------|-------------------|
----------------------|----------------------|-------------------|
--2------------L--x-x-|--4------------L------|--3----------------|
--2------------L--x-x-|--4------------L--x-x-|--4----------------|
--0------------L--x-x-|--2------------L--x-x-|--4----------------|
----------------------|------------------x-x-|--2----------------|


  W                   W                   W                   W                 
--2----------------|-------------------|--4----------------|-----------||
--2----------------|--4----------------|--4----------------|--4--------||
--3----------------|--4----------------|--5----------------|--4--------||
--4----------------|--4----------------|--6----------------|--4--------||
-------------------|--6----------------|-------------------|--6--------||
-------------------|-------------------|-------------------|-----------||


  Verse 2                                                            
  E  S S E  S S S S E  S S S S    E  S S E  S S S S E  S S S S  
-------------------------------|-------------------------------|
--2--x-x-2--x-x-x-x-2--x-2-x-x-|--4--x-x-4--x-x-x-x-4--x-4-x-x-|
--3--x-x-3--x-x-x-x-3--x-3-x-x-|--4--x-x-4--x-x-x-x-4--x-4-x-x-|
--4--x-x-4--x-x-x-x-4--x-4-x-x-|--4--x-x-4--x-x-x-x-4--x-4-x-x-|
-------------------------------|-------------------------------|
-------------------------------|-------------------------------|


  E  S S E  S S S S E  S S S S    E  S S E  S S S S E  S S S S  
--4--x-x-4--x-x-x-x-4--x-4-x-x-|-------------------------------|
--4--x-x-4--x-x-x-x-4--x-4-x-x-|--4--x-x-4--x-x-x-x-4--x-4-x-x-|
--5--x-x-5--x-x-x-x-5--x-5-x-x-|--4--x-x-4--x-x-x-x-4--x-4-x-x-|
--6--x-x-6--x-x-x-x-6--x-6-x-x-|--4--x-x-4--x-x-x-x-4--x-4-x-x-|
-------------------------------|-------------------------------|
-------------------------------|-------------------------------|


  E  S S E  S S S S E  S S S S    E  S S E  S S S S E  S S S S  
-------------------------------|-------------------------------|
--2--x-x-2--x-x-x-x-2--x-2-x-x-|--4--x-x-4--x-x-x-x-4--x-4-x-x-|
--3--x-x-3--x-x-x-x-3--x-3-x-x-|--4--x-x-4--x-x-x-x-4--x-4-x-x-|
--4--x-x-4--x-x-x-x-4--x-4-x-x-|--4--x-x-4--x-x-x-x-4--x-4-x-x-|
-------------------------------|-------------------------------|
-------------------------------|-------------------------------|


  E  S S E  S S S S E  S S S S    E  E  E  E  E  E  E  E   
--4--x-x-4--x-x-x-x-4--x-4-x-x-|--------------------------||
--4--x-x-4--x-x-x-x-4--x-4-x-x-|--4--4--4--4--4--4--4--4--||
--5--x-x-5--x-x-x-x-5--x-5-x-x-|--4--4--4--4--4--4--4--4--||
--6--x-x-6--x-x-x-x-6--x-6-x-x-|--4--4--4--4--4--4--4--4--||
-------------------------------|--------------------------||
-------------------------------|--------------------------||


  Chorus 2                                                                 
  H.           E  S S    H.           E  S S    H.           E  S S  
----------------------|----------------------|----------------------|
--3------------L------|----------------------|----------------------|
--2------------L--2-2-|--2------------L--4-4-|--4------------L------|
--4------------L--2-2-|--2------------L--4-4-|--4------------L------|
--0------------L--0-0-|--0------------L--2-2-|--2------------L--4-4-|
----------------------|----------------------|------------------2-2-|


  H.           E  S S    H.           E  S S    H.           E  S S  
--2------------L------|----------------------|----------------------|
--2------------L--3-3-|--3------------L------|----------------------|
--3------------L--2-2-|--2------------L--2-2-|--2------------L--4-4-|
--4------------L--4-4-|--4------------L--2-2-|--2------------L--4-4-|
--4------------L------|--0------------L--0-0-|--0------------L--2-2-|
--2------------L------|----------------------|----------------------|


                                                    B                       
                         PM PM PM PM                                        
  H.           E  S S    E  E  E  E  E  E  E  E     Q    E  E  E  E  E  E   
----------------------|--------------------------|-------------------------|
----------------------|--------------------------|-------------------------|
--4------------L------|--------------------------|--6----6-----6--6-----6--|
--4------------L------|--------------4--4--4--4--|--6----6-----6--6-----6--|
--2------------L--4-4-|--4--4--4--4--4--4--4--4--|--4----4--x--4--4-----4--|
------------------2-2-|--2--2--2--2--2--2--2--2--|-------------------------|


  E  E  E  E  E  E  Q       Q    Q    E  E  E  E     E  E  Q    E  E  E  E   
-------------------------|------------------------|-------------------------|
-------------------------|------------------------|-------------------------|
--L-----6--x--6--6--6----|--4----4-------4-----4--|--L--4--4-------4--4--x--|
--L--4--6--x--4--6--6----|--4----4----x--4-----4--|--L--4--4-------4--4--x--|
--L--4--4--x--4--4--4----|--2----2----x--2-----2--|--L--2--2-------2--2--x--|
-------------------------|------------------------|-------------------------|


  Q    Q    E  E  E  E     E  E  Q    E  E  Q       Q.     E  Q    Q     
------------------------|------------------------|----------------------|
------------------------|-------------7--7--7----|----------------------|
--6----6----6--6-----6--|--L--6--6----6--6--6----|----------------------|
--6----6----6--6-----6--|--L--4--6----6--6--6----|----------------------|
--4----4----4--4-----4--|--L--4--4----4--4--4----|--2------3--L----4----|
------------------------|------------------------|----------------------|


                          Guitar Solo                                     
  E  Q.     Q    Q        W                   W                 
----------------------||--2----------------|-------------------|
----------------------||--2----------------|--4----------------|
----------------------||--3----------------|--4----------------|
----------------------||--4----------------|--4----------------|
--L--5------6----7----||-------------------|--6----------------|
----------------------||-------------------|-------------------|


  W                   W                   W                   W                 
--4----------------|-------------------|--2----------------|-------------------|
--4----------------|--4----------------|--2----------------|--4----------------|
--5----------------|--4----------------|--3----------------|--4----------------|
--6----------------|--4----------------|--4----------------|--4----------------|
-------------------|--6----------------|-------------------|--6----------------|
-------------------|-------------------|-------------------|-------------------|


  W                   W                   E  S S E  S S S S E  S S S S  
--4----------------|-------------------|-------------------------------|
--4----------------|--4----------------|--2--x-x-2--x-x-x-x-2--x-2-x-x-|
--5----------------|--4----------------|--3--x-x-3--x-x-x-x-3--x-3-x-x-|
--6----------------|--4----------------|--4--x-x-4--x-x-x-x-4--x-4-x-x-|
-------------------|--6----------------|-------------------------------|
-------------------|-------------------|-------------------------------|


  E  S S E  S S S S E  S S S S    E  S S E  S S S S E  S S S S  
-------------------------------|-------------------------------|
--4--x-x-4--x-x-x-x-4--x-4-x-x-|--4--x-x-4--x-x-x-x-4--x-4-x-x-|
--4--x-x-4--x-x-x-x-4--x-4-x-x-|--5--x-x-5--x-x-x-x-5--x-5-x-x-|
--4--x-x-4--x-x-x-x-4--x-4-x-x-|--6--x-x-6--x-x-x-x-6--x-6-x-x-|
-------------------------------|-------------------------------|
-------------------------------|-------------------------------|


  E  S S E  S S S S E  S S S S    E  S S E  S S S S E  S S S S  
-------------------------------|-------------------------------|
--4--x-x-4--x-x-x-x-4--x-4-x-x-|--2--x-x-2--x-x-x-x-2--x-2-x-x-|
--4--x-x-4--x-x-x-x-4--x-4-x-x-|--3--x-x-3--x-x-x-x-3--x-3-x-x-|
--4--x-x-4--x-x-x-x-4--x-4-x-x-|--4--x-x-4--x-x-x-x-4--x-4-x-x-|
-------------------------------|-------------------------------|
-------------------------------|-------------------------------|


  E  S S E  S S S S E  S S S S    E  S S E  S S S S E  S S S S  
-------------------------------|-------------------------------|
--4--x-x-4--x-x-x-x-4--x-4-x-x-|--4--x-x-4--x-x-x-x-4--x-4-x-x-|
--4--x-x-4--x-x-x-x-4--x-4-x-x-|--5--x-x-5--x-x-x-x-5--x-5-x-x-|
--4--x-x-4--x-x-x-x-4--x-4-x-x-|--6--x-x-6--x-x-x-x-6--x-6-x-x-|
-------------------------------|-------------------------------|
-------------------------------|-------------------------------|


                              Chorus 3                                          
  E  E  E  E  E  E  E  E      H.           E  S S    H.           E  S S  
--------------------------||----------------------|----------------------|
--4--4--4--4--4--4--4--4--||--3------------L------|----------------------|
--4--4--4--4--4--4--4--4--||--2------------L--2-2-|--2------------L--4-4-|
--4--4--4--4--4--4--4--4--||--4------------L--2-2-|--2------------L--4-4-|
--------------------------||--0------------L--0-0-|--0------------L--2-2-|
--------------------------|\----------------------|----------------------|


  H        Q    E  S S    H.           E  S S    H.           E  E   
-----------------------|--2------------L------|---------------------|
-----------------------|--2------------L--3-3-|--3------------L-----|
--4--------4----4------|--3------------L--2-2-|--2------------L--2--|
--4--------4----4------|--4------------L--4-4-|--4------------L--2--|
--2--------2----2--4-4-|--4------------L------|--0------------L--0--|
-------------------2-2-|--2------------L------|---------------------|


  H.           E  S S    H.           S S S S    H.           E  S S  
----------------------|-----------------------|--2------------L------|
----------------------|-----------------------|--2------------L--3-3-|
--L------------L------|--4------------x-x-x-x-|--3------------L--2-2-|
--L------------L--x-x-|--4------------x-x-x-x-|--4------------L--4-4-|
--L------------L--x-x-|--2------------x-x-x-x-|----------------------|
----------------------|-----------------------|----------------------|


  H.           E  E     H.           E  E     H.           E  S S  
---------------------|---------------------|----------------------|
--3------------L-----|---------------------|----------------------|
--2------------L--2--|--2------------L--4--|--4------------L------|
--4------------L--2--|--2------------L--4--|--4------------L------|
--0------------L--0--|--0------------L--2--|--2------------L--4-4-|
---------------------|---------------------|------------------2-2-|


  H.           E  S S    H.           E  S S    W                 
----------------------|----------------------|-------------------|
------------------3-3-|--3------------L------|-------------------|
------------------2-2-|--2------------L--2-2-|--2----------------|
--4------------4--4-4-|--4------------L--2-2-|--2----------------|
--4------------4------|--0------------L--0-0-|--0----------------|
--2------------2------|----------------------|-------------------|


                                                           Outro                 
       PM                                                                   
  Q    E  E  E  E  E  E     S E  S E  S S S S E  E  E      W                 
-------------------------|-----------------------------||-------------------|
-------------------------|-----------------------------||-------------------|
--4----------4--4--4--4--|----4----4----4-----4--4--4--||-------------------|
--4----4--4--4--4--4--4--|----4----4----4-----4--4--4--||-------------------|
--2----2--2--2--2--2--2--|--0-2--0-2--0-2-L-0-2--2--2--||-------------------|
-------------------------|-----------------------------||--2----------------|


  W                   W                   W                 
-------------------|-------------------|-------------------|
-------------------|-------------------|-------------------|
-------------------|-------------------|-------------------|
-------------------|-------------------|-------------------|
-------------------|-------------------|-------------------|
--L----------------|-------------------|-------------------|


                                     PM  
  S  S  S  S S  S S S E  E   S  S  S S   
----------------------------------------|
----------------------------------------|
----------------------------------------|
--6h-7p-6s-4-6p-4-6-4-7--7~--6h-7p-6----|
-------------------------------------9--|
----------------------------------------|


                                      PM  
  S  S  S  S S  S S  S E  E   S  S  S S   
-----------------------------------------|
-----------------------------------------|
-----------------------------------------|
--6h-7p-6s-4-6p-4-6p-4-7--7~--6h-7p-6----|
--------------------------------------9--|
-----------------------------------------|


  S  S  S  S S  S S  S  E   E  S   S  S  S  
-------------------------------------------|
-------------------------------------------|
-------------------------------------------|
--9-10p-9s-7-9p-7-9p-7-10--10--9h-10p-9----|
----------------------------------------12-|
-------------------------------------------|


  S  S  S  S S  S S  S  E   E   S   S  S  S  
--------------------------------------------|
--------------------------------------------|
--------------------------------------------|
--9-10p-9s-7-9p-7-9p-7-10--10~--9h-10p-9----|
-----------------------------------------12-|
--------------------------------------------|


                                               PM 
   S  S   S  S  S  S  S  S  E   E    S  S   S  S  
-------------------------------------------------|
-------------------------------------------------|
-------------------------------------------------|
--11-13p-11s-9-11p-9-11p-9-13--13~--11-13p-11----|
----------------------------------------------14-|
-------------------------------------------------|


                      PMPM                     PM 
   S  S   S  S  S  S  S S   E   E    S  S   S  S  
-------------------------------------------------|
-------------------------------------------------|
-------------------------------------------------|
--11-13p-11s-9-11p-9-11-9--13--13~--11-13p-11----|
----------------------------------------------14-|
-------------------------------------------------|


   S S  S  S  S  S  S  S E  E   S S  S  S  
------------------------------------------|
------------------------------------------|
-----9-------------------9--9-----9-------|
--11---11p-9-11p-9-11-11-------11---11p-9-|
------------------------------------------|
------------------------------------------|


   S S  S  S  S  S  E  E  E   S S  S  S  
----------------------------------------|
----------------------------------------|
-----9-----------------9--9-----9-------|
--11---11p-9-11p-9-11--------11---11p-9-|
----------------------------------------|
----------------------------------------|


  S   S  S  S S  S E   E   E  S   S  S  S  
------------------------------------------|
------------------------------------------|
--9h-11p-9----9----9--11--11--9h-11p-9----|
-----------11---11---------------------11-|
------------------------------------------|
------------------------------------------|


  S   S  S  S S  S E   E   E  S   S  S  S  
------------------------------------------|
------------------------------------------|
--9h-11p-9----9----9--11--11--9h-11p-9----|
-----------11---11---------------------11-|
------------------------------------------|
------------------------------------------|


  S   S  S  S S  S E   E   E  S   S  S  S  
------------------------------------------|
------------------------------------------|
--9h-11p-9----9----9--11--11--9h-11p-9----|
-----------11---11---------------------11-|
------------------------------------------|
------------------------------------------|


  S   S  S  S S  S E   E   E  S   E.       E   E  H.             
---------------------------------------|-----------------------||
---------------------------------------|-----------------------||
--9h-11p-9----9----9--11--11--9h-11~---|---L\------------------||
-----------11---11---------------------|-----------------------||
---------------------------------------|-----------------------||
---------------------------------------|-----------------------||


Duration Legend
---------------
W - whole
H - half
Q - quarter
E - 8th
S - 16th
. - note dotted
|-n-|  - n-tuplets


Tablature Legend
----------------
L - tied note
x - dead note
g - grace note
(n) - ghost note
> - accentuded note
h - hammer on
p - pull off
b - bend
br - bendRelease
pb - preBend
pbr - preBendRelease
brb - bendReleaseBend
S - shift slide
s - legato slide
/ -  slide into from below or out of upwards
\ -  slide into from above or out of downwards
~ - vibrato
W - wide vibrato

Get my other tabs for Guitar Pro, Powertab, guitar/bass text and chords at
http://profile.ultimate-guitar.com/TexasFury/contributions/

            
            
Suggest correction
Creating personal tab
Creating personal tab
You can edit any tab online and save it as your Personal.

You can edit, replace or remove any tab part or add personal notes – all changes will be seen only by you.

Personal tabs can be accessed anytime from any device, even offline.
Learn more »
Give kudos to tab author, rate the tab!
1 2 3 4 5
comments
print report bad tab
guest
You may want to rate the tab now too:
select rating
Wanna post a correction for this tab? Suggest correction