Oops, an error
Loading. Please wait.

Watch This bass

version 2
version 2

Whole song

Interactive

by Slash
392 views 3 this week
no commentswrite comment
1 2 3 4 5
2 more votes to show rating
add to favorites
×
Save as Personal and add changes to this tab that will be seen only by you. Learn more ›
×
You can save this tab as Personal to edit and correct it or add notes. All changes will be seen only by you. Learn more »
launch autoscroll
font size
0
reset
guitar tuner
backing track
0:00
0:00
edit
Autoscroll
slow
fast
+/-
esc
set tempo
stop
0:08
G|-------------------------------------------------------------------|
D|o-----------------------------------------------------------------o|
A|o-----5---3-------5---2---0---1-------5---1-------1---------------o|x15
D|--0-----------0-------------------0-----------0-------0---5---3----|
    1   +   2   +   3   +   4   +   1   +   2   +   3   +   4   + 

1:01
G|-----------------------------------------------------------------|
D|-----------------------------------------------------------------|
A|-----5---3-------5---2---0---1-------5---1-------1---0-----------|
D|-0-----------0-------------------0-----------0-----------0---2---|
   1   +   2   +   3   +   4   +   1   +   2   +   3   +   4   + 

1:04
G|-----------------------------------------------------------------|
D|-----------------------------------------------------------------|
A|-----------------------------------------------------------------|
D|-3-------3-------3-------3-------3-------3-------3-------3-------|
   1   +   2   +   3   +   4   +   1   +   2   +   3   +   4   + 

G|-----------------------------------------------------------------|
D|-----------------------------------------------------------------|
A|-----------------------------------------------------------------|
D|-3-------3-------3-------3-------3---3---3---3---3---3---5---2---|
   1   +   2   +   3   +   4   +   1   +   2   +   3   +   4   + 

1:11
G|-----------------------------------------------------------------|
D|-----------------------------------------------------------------|
A|-0-------0-------0-------3---0-------0---3---5---6---7---5---3---|
D|---------------------5-------------------------------------------|
   1   +   2   +   3   +   4   +   1   +   2   +   3   +   4   + 

G|-----------------------------------------------------------------|
D|-------------------------------------------------10--10--9-------|
A|-0-------0-------0-------3---0-------0---3---0---------------10--|
D|---------------------5-------------------------------------------|
   1   +   2   +   3   +   4   +   1   +   2   +   3   +   4   + 

G|-----------------------------------------------------------------|
D|-----------------------------------------------------------------|
A|-0-------0-------0-------3---0-------0---3---5---6---7---5---3---|
D|---------------------5-------------------------------------------|
   1   +   2   +   3   +   4   +   1   +   2   +   3   +   4   + 

G|-----------------------------------------------------------------|
D|-----------------------------------------------------------------|
A|-0-------0-------0-------3---0-------0---3---0-------------------|
D|---------------------5---------------------------3---3---2---1---|
   1   +   2   +   3   +   4   +   1   +   2   +   3   +   4   + 

1:25
G|-------------------------------------------------------------------|
D|o-----------------------------------------------------------------o|
G|o-----------------------------------------------------------------o|
D|------0---0-------0---0-------0------------------------------------|
    1   +   2   +   3   +   4   +   1   +   2   +   3   +   4   + 

1:32
G|-------------------------------------------------------------------|
D|o-----------------------------------------------------------------o|
A|o-----5---3-------5---2---0---1-------5---1-------1---------------o|x7
D|--0-----------0-------------------0-----------0-------0---5---3----|
    1   +   2   +   3   +   4   +   1   +   2   +   3   +   4   + 

1:57
G|-----------------------------------------------------------------|
D|-----------------------------------------------------------------|
A|-----5---3-------5---2---0---1-------5---1-------1-----------0---|
D|-0-----------0-------------------0-----------0-------0---5-------|
   1   +   2   +   3   +   4   +   1   +   2   +   3   +   4   + 

2:01 slower
G|-----------------------------------------------------------------|
D|-----------------------------------------------------------------|
A|-1---------------------------------------1-----------------------|
D|---------------------------------------------------------5-h-7---|
   1   +   2   +   3   +   4   +   1   +   2   +   3   +   4   + 

G|-----------------------------------------------------------------|
D|-----------------------------------------------------------------|
A|---------------------------------------------------------3-h-4---|
D|-8---------------------------------------------------------------|
   1   +   2   +   3   +   4   +   1   +   2   +   3   +   4   + 

G|-----------------------------------------------------------------|
D|-----------------------------------------------------------------|
A|-5---------------------------------------------------------------|
D|---------------------------------------------------------3-------|
   1   +   2   +   3   +   4   +   1   +   2   +   3   +   4   + 

G|-----------------------------------------------------------------|
D|-----------------------------------------------------------------|
A|---------------------------------------------------------3-------|
D|-0---------------------------------------------------------------|
   1   +   2   +   3   +   4   +   1   +   2   +   3   +   4   + 

2:14
G|-----------------------------------------------------------------|
D|-----------------------------------------------------------------|
A|-1---------------------------1-------1---1-----------------------|
D|---------------------------------------------------------5-h-7---|
   1   +   2   +   3   +   4   +   1   +   2   +   3   +   4   + 

G|-----------------------------------------------------------------|
D|-----------------------------------------------------------------|
A|---------------------------------------------------------3-------|
D|-8---------------------------8-----------------------------------|
   1   +   2   +   3   +   4   +   1   +   2   +   3   +   4   + 

G|-----------------------------------------------------------------|
D|-----------------------------------------------------------------|
A|---------------------------------------------------------3-h-4---|
D|-0---------------------------0-------0---0-----------------------|
   1   +   2   +   3   +   4   +   1   +   2   +   3   +   4   + 

G|-----------------------------------------------------------------|
D|-----------------------------------------------------------------|
A|-5---------------5-----------5-------------------7-------8-------|
D|-----------------------------------------------------------------|
   1   +   2   +   3   +   4   +   1   +   2   +   3   +   4   + 

2:29
G|-----------------------------------------------------------------|
D|-----------------------------------------------------------------|
A|-----------------------------------------------------------------|
D|-8---------------------------8---------------------------5---7---|
   1   +   2   +   3   +   4   +   1   +   2   +   3   +   4   + 

G|-----------------------------------------------------------------|
D|-----------------------------------------------------------------|
A|---------------------------------------------------------3-------|
D|-8---------------8-----------8-----------8-------8---------------|
   1   +   2   +   3   +   4   +   1   +   2   +   3   +   4   + 

G|-----------------------------------------------------------------|
D|-----------------------------------------------------------------|
A|-----------------------------------------5-----------------------|
D|-0---------------0-----------0---------------------------0-------|
   1   +   2   +   3   +   4   +   1   +   2   +   3   +   4   + 

G|-----------------------------------------------------------------|
D|-----------------------------------------------------------------|
A|---------------------------------------------------------3-------|
D|-0---------------------------------------------------------------|
   1   +   2   +   3   +   4   +   1   +   2   +   3   +   4   + 

2:43
G|-------------------------------------------------------------------|
D|o-----------------------------------------------------------------o|
A|o-1---------------1-----------1-----------1-------1---------------o|
D|-------------------------------------------------------------------|
    1   +   2   +   3   +   4   +   1   +   2   +   3   +   4   + 

G|-----------------------------------------------------------------|
D|-----------------------------------------------------------------|
A|-0---------------0-------------------------------0---------------|
D|-------------------------------------------------------------0---|
   1   +   2   +   3   +   4   +   1   +   2   +   3   +   4   + 

G|-----------------------------------------------------------------|
D|-----------------------------------------------------------------|
A|-----------------------------------------------------------------|
D|-5---5---5---5---5---5---5---5---3---3---3---3---2---2---2---2---|
   1   +   2   +   3   +   4   +   1   +   2   +   3   +   4   + 

2:59
G|-----------------------------------------------------------------|
D|-----------------------------------------------------------------|
G|-----------------------------------------------------------------|
D|-3---3---3---3---3---3-------3-------3---3---3---3---3---2---2---|
   1   +   2   +   3   +   4   +   1   +   2   +   3   +   4   + 

G|-----------------------------------------------------------------|
D|-----------------------------------------------------------------|
G|-----------------------------------------------------------------|
D|-3---3---3---3---3---3---2---3-------3---3---3---3---3---2---2---|
   1   +   2   +   3   +   4   +   1   +   2   +   3   +   4   + 

G|-----------------------------------------------------------------|
D|-----------------------------------------------------------------|
A|-0-------0-------0-------3---0-------0---3---5---6---7---5---3---|
D|---------------------5-------------------------------------------|
   1   +   2   +   3   +   4   +   1   +   2   +   3   +   4   + 

G|-----------------------------------------------------------------|
D|-----------------------------------------------------------------|
A|-0-------0-------0-------3---0-------0---3---0-------------------|
D|---------------------5---------------------------3---3---2---1---|
   1   +   2   +   3   +   4   +   1   +   2   +   3   +   4   + 

3:12
G|-------------------------------------------------------------------|
D|o-----------------------------------------------------------------o|
A|o-----5---3-------5---2---0---1-------5---1-------1---------------o|x3
D|--0-----------0-------------------0-----------0-------0---5---3----|
    1   +   2   +   3   +   4   +   1   +   2   +   3   +   4   + 

G|-----------------------------------------------------------------|
D|-----------------------------------/-7---10--7---10--12----------|
A|-----5---3-------5---2---0---1---------------------------8---8---|
D|-0-----------0-------------------0-------------------------------|
   1   +   2   +   3   +   4   +   1   +   2   +   3   +   4   + 

G|-------------------------------------------------------------------|
D|o-----------------------------------------------------------------o|
A|o-----5---3-------5---2---0---1-------5---1-------1---------------o| x4
D|--0-----------0-------------------0-----------0-------0---5---3----|
    1   +   2   +   3   +   4   +   1   +   2   +   3   +   4   + 

G|-----------------------------------------------------------------|
D|-----------------------------------------------------------------|
A|-----5---3-------5---2---0---1-----------------------------------|
D|-0-----------0---------------------------------------------------|
   1   +   2   +   3   +   4   +   1   +   2   +   3   +   4   + 

            
            
Suggest correction
Creating personal tab
Creating personal tab
You can edit any tab online and save it as your Personal.

You can edit, replace or remove any tab part or add personal notes – all changes will be seen only by you.

Personal tabs can be accessed anytime from any device, even offline.
Learn more »
Give kudos to tab author, rate the tab!
1 2 3 4 5
comments
print report bad tab
guest
You may want to rate the tab now too:
select rating
Wanna post a correction for this tab? Suggest correction